  0
SECTION
  2
HEADER
  9
$ACADVER
  1
AC1009
  9
$INSBASE
 10
0.0
 20
0.0
 30
0.0
  9
$EXTMIN
 10
-444.7935243309289
 20
-688.10956819777812
 30
-0.0015258207003583
  9
$EXTMAX
 10
455.2614073097597
 20
650.04075378504137
 30
0.0000000349246037
  9
$LIMMIN
 10
0.0
 20
0.0
  9
$LIMMAX
 10
0.0
 20
0.0
  9
$ORTHOMODE
 70
     0
  9
$REGENMODE
 70
     1
  9
$FILLMODE
 70
     1
  9
$QTEXTMODE
 70
     0
  9
$MIRRTEXT
 70
     1
  9
$DRAGMODE
 70
     2
  9
$LTSCALE
 40
25.399999999999999
  9
$OSMODE
 70
   167
  9
$ATTMODE
 70
     1
  9
$TEXTSIZE
 40
0.0
  9
$TRACEWID
 40
1.0
  9
$TEXTSTYLE
  7
STANDARD
  9
$CLAYER
  8
DATA
  9
$CELTYPE
  6
CONTINUOUS
  9
$CECOLOR
 62
   256
  9
$DIMSCALE
 40
1.0
  9
$DIMASZ
 40
0.18
  9
$DIMEXO
 40
0.0625
  9
$DIMDLI
 40
0.38
  9
$DIMRND
 40
0.0
  9
$DIMDLE
 40
0.0
  9
$DIMEXE
 40
0.18
  9
$DIMTP
 40
0.0
  9
$DIMTM
 40
0.0
  9
$DIMTXT
 40
0.18
  9
$DIMCEN
 40
0.09
  9
$DIMTSZ
 40
0.0
  9
$DIMTOL
 70
     0
  9
$DIMLIM
 70
     0
  9
$DIMTIH
 70
     1
  9
$DIMTOH
 70
     1
  9
$DIMSE1
 70
     0
  9
$DIMSE2
 70
     0
  9
$DIMTAD
 70
     0
  9
$DIMZIN
 70
     0
  9
$DIMBLK
  1

  9
$DIMASO
 70
     1
  9
$DIMSHO
 70
     1
  9
$DIMPOST
  1

  9
$DIMAPOST
  1

  9
$DIMALT
 70
     0
  9
$DIMALTD
 70
     2
  9
$DIMALTF
 40
25.399999999999999
  9
$DIMLFAC
 40
1.0
  9
$DIMTOFL
 70
     0
  9
$DIMTVP
 40
0.0
  9
$DIMTIX
 70
     0
  9
$DIMSOXD
 70
     0
  9
$DIMSAH
 70
     0
  9
$DIMBLK1
  1

  9
$DIMBLK2
  1

  9
$DIMSTYLE
  2
STANDARD
  9
$DIMCLRD
 70
     0
  9
$DIMCLRE
 70
     0
  9
$DIMCLRT
 70
     0
  9
$DIMTFAC
 40
1.0
  9
$DIMGAP
 40
0.09
  9
$LUNITS
 70
     2
  9
$LUPREC
 70
     4
  9
$SKETCHINC
 40
0.1
  9
$FILLETRAD
 40
0.0
  9
$AUNITS
 70
     0
  9
$AUPREC
 70
     0
  9
$MENU
  1
acad
  9
$ELEVATION
 40
0.0
  9
$PELEVATION
 40
0.0
  9
$THICKNESS
 40
0.0
  9
$LIMCHECK
 70
     0
  9
$BLIPMODE
 70
     0
  9
$CHAMFERA
 40
0.0
  9
$CHAMFERB
 40
0.0
  9
$SKPOLY
 70
     0
  9
$TDCREATE
 40
2453187.8258217601
  9
$TDUPDATE
 40
2453187.8459423729
  9
$TDINDWG
 40
0.0002448611
  9
$TDUSRTIMER
 40
0.0002448611
  9
$USRTIMER
 70
     1
  9
$ANGBASE
 50
0.0
  9
$ANGDIR
 70
     0
  9
$PDMODE
 70
     1
  9
$PDSIZE
 40
-2.0
  9
$PLINEWID
 40
0.0
  9
$COORDS
 70
     0
  9
$SPLFRAME
 70
     0
  9
$SPLINETYPE
 70
     6
  9
$SPLINESEGS
 70
     8
  9
$ATTDIA
 70
     0
  9
$ATTREQ
 70
     1
  9
$HANDLING
 70
     1
  9
$HANDSEED
  5
1198
  9
$SURFTAB1
 70
     6
  9
$SURFTAB2
 70
     6
  9
$SURFTYPE
 70
     6
  9
$SURFU
 70
     6
  9
$SURFV
 70
     6
  9
$UCSNAME
  2

  9
$UCSORG
 10
0.0
 20
0.0
 30
0.0
  9
$UCSXDIR
 10
1.0
 20
0.0
 30
0.0
  9
$UCSYDIR
 10
0.0
 20
1.0
 30
0.0
  9
$PUCSNAME
  2

  9
$PUCSORG
 10
0.0
 20
0.0
 30
0.0
  9
$PUCSXDIR
 10
1.0
 20
0.0
 30
0.0
  9
$PUCSYDIR
 10
0.0
 20
1.0
 30
0.0
  9
$USERI1
 70
     0
  9
$USERI2
 70
     0
  9
$USERI3
 70
     0
  9
$USERI4
 70
     0
  9
$USERI5
 70
     0
  9
$USERR1
 40
0.0
  9
$USERR2
 40
0.0
  9
$USERR3
 40
0.0
  9
$USERR4
 40
0.0
  9
$USERR5
 40
0.0
  9
$WORLDVIEW
 70
     1
  9
$SHADEDGE
 70
     3
  9
$SHADEDIF
 70
    70
  9
$TILEMODE
 70
     1
  9
$MAXACTVP
 70
    16
  9
$PLIMCHECK
 70
     0
  9
$PEXTMIN
 10
1.0000000000000000E+020
 20
1.0000000000000000E+020
 30
1.0000000000000000E+020
  9
$PEXTMAX
 10
-1.0000000000000000E+020
 20
-1.0000000000000000E+020
 30
-1.0000000000000000E+020
  9
$PLIMMIN
 10
0.0
 20
0.0
  9
$PLIMMAX
 10
12.0
 20
9.0
  9
$UNITMODE
 70
     0
  9
$VISRETAIN
 70
     0
  9
$PLINEGEN
 70
     1
  9
$PSLTSCALE
 70
     0
  0
ENDSEC
  0
SECTION
  2
TABLES
  0
TABLE
  2
VPORT
 70
     2
  0
VPORT
  2
*ACTIVE
 70
     0
 10
0.0
 20
0.0
 11
1.0
 21
1.0
 12
5.2339414894154279
 22
-19.034407206368311
 13
0.0
 23
0.0
 14
1.0
 24
1.0
 15
0.0
 25
0.0
 16
0.0
 26
0.0
 36
1.0
 17
0.0
 27
0.0
 37
0.0
 40
1348.7846291773851
 41
1.5994694960212199
 42
50.0
 43
0.0
 44
0.0
 50
0.0
 51
0.0
 71
     0
 72
   100
 73
     1
 74
     1
 75
     0
 76
     0
 77
     0
 78
     0
  0
ENDTAB
  0
TABLE
  2
LTYPE
 70
    11
  0
LTYPE
  2
CONTINUOUS
 70
     0
  3
Solid line
 72
    65
 73
     0
 40
0.0
  0
ENDTAB
  0
TABLE
  2
LAYER
 70
     6
  0
LAYER
  2
0
 70
     0
 62
     7
  6
CONTINUOUS
  0
LAYER
  2
DATA
 70
     0
 62
     7
  6
CONTINUOUS
  0
LAYER
  2
DEFPOINTS
 70
     0
 62
     7
  6
CONTINUOUS
  0
LAYER
  2
HIBINO-BASE
 70
     0
 62
     7
  6
CONTINUOUS
  0
LAYER
  2
SPEC
 70
     0
 62
     7
  6
CONTINUOUS
  0
LAYER
  2
DIMNSIONS
 70
     0
 62
     7
  6
CONTINUOUS
  0
ENDTAB
  0
TABLE
  2
STYLE
 70
     3
  0
STYLE
  2
STANDARD
 70
     0
 40
0.0
 41
1.0
 50
0.0
 71
     0
 42
0.0
  3
txt
  4
BIGFONT.SHX
  0
ENDTAB
  0
TABLE
  2
VIEW
 70
     0
  0
ENDTAB
  0
TABLE
  2
UCS
 70
     0
  0
ENDTAB
  0
TABLE
  2
APPID
 70
     1
  0
APPID
  2
ACAD
 70
     0
  0
ENDTAB
  0
TABLE
  2
DIMSTYLE
 70
     1
  0
DIMSTYLE
  2
STANDARD
 70
     0
  3

  4

  5

  6

  7

 40
1.0
 41
0.18
 42
0.0625
 43
0.38
 44
0.18
 45
0.0
 46
0.0
 47
0.0
 48
0.0
140
0.18
141
0.09
142
0.0
143
25.399999999999999
144
1.0
145
0.0
146
1.0
147
0.09
 71
     0
 72
     0
 73
     1
 74
     1
 75
     0
 76
     0
 77
     0
 78
     0
170
     0
171
     2
172
     0
173
     0
174
     0
175
     0
176
     0
177
     0
178
     0
  0
ENDTAB
  0
ENDSEC
  0
SECTION
  2
BLOCKS
  0
BLOCK
  8
0
  2
$MODEL_SPACE
 70
     0
 10
0.0
 20
0.0
 30
0.0
  3
$MODEL_SPACE
  1

  0
ENDBLK
  5
AB8
  8
0
  0
BLOCK
 67
     1
  8
0
  2
$PAPER_SPACE
 70
     0
 10
0.0
 20
0.0
 30
0.0
  3
$PAPER_SPACE
  1

  0
ENDBLK
  5
AB4
 67
     1
  8
0
  0
ENDSEC
  0
SECTION
  2
ENTITIES
  0
LINE
  5
2E
  8
HIBINO-BASE
  6
CONTINUOUS
 62
     7
 10
-444.76606060606048
 20
650.0
 30
0.0
 11
455.23393939393929
 21
650.0
 31
0.0
  0
LINE
  5
2F
  8
HIBINO-BASE
  6
CONTINUOUS
 62
     7
 10
455.23393939393929
 20
-650.0
 30
0.0
 11
-444.76606060606048
 21
-650.0
 31
0.0
  0
LINE
  5
30
  8
HIBINO-BASE
  6
CONTINUOUS
 62
     7
 10
-444.76606060606048
 20
-650.0
 30
0.0
 11
-444.76606060606048
 21
650.0
 31
0.0
  0
TEXT
  5
31
  8
HIBINO-BASE
 62
     7
 10
-408.84606060606041
 20
-682.04338899999993
 30
0.0
 40
18.00022089843749
  1
Hibino Corporation
 41
0.8
 11
-408.84606060606041
 21
-664.04316810156229
 31
0.0
 73
     3
  0
LINE
  5
32
  8
HIBINO-BASE
  6
CONTINUOUS
 62
     7
 10
455.23393939393929
 20
650.0
 30
0.0
 11
455.23393939393929
 21
-650.0
 31
0.0
  0
LINE
  5
33
  8
HIBINO-BASE
  6
CONTINUOUS
 62
     7
 10
5.2339393939393926
 20
-537.49999999999989
 30
0.0
 11
455.23393939393929
 21
-537.49999999999989
 31
0.0
  0
LINE
  5
34
  8
HIBINO-BASE
  6
CONTINUOUS
 62
     7
 10
5.2339393939393926
 20
-650.0
 30
0.0
 11
5.2339393939393926
 21
-537.49999999999989
 31
0.0
  0
TEXT
  5
35
  8
HIBINO-BASE
 62
     7
 10
9.7339393939393943
 20
-550.04346666666652
 30
0.0
 40
8.1442057291666661
  1
NOTE
 41
0.8
 11
9.7339393939393943
 21
-541.89926093749978
 31
0.0
 73
     3
  0
LINE
  5
36
  8
HIBINO-BASE
  6
CONTINUOUS
 62
     7
 10
180.23393939393941
 20
-650.0
 30
0.0
 11
180.23393939393941
 21
-537.49999999999989
 31
0.0
  0
TEXT
  5
37
  8
HIBINO-BASE
 62
     7
 10
184.73393939393941
 20
-550.04346666666652
 30
0.0
 40
8.1442057291666661
  1
TITLE
 41
0.8
 11
184.73393939393941
 21
-541.89926093749978
 31
0.0
 73
     3
  0
TEXT
  5
38
  8
HIBINO-BASE
 62
     7
 10
255.57588939393929
 20
-682.04338899999993
 30
0.0
 40
18.00022089843749
  1
ヒビノ株式会社
 41
0.8
 11
255.57588939393929
 21
-664.04316810156229
 31
0.0
 73
     3
  0
LINE
  5
39
  8
HIBINO-BASE
  6
CONTINUOUS
 62
     7
 10
5.2339393939393926
 20
-599.99999999999989
 30
0.0
 11
455.23393939393929
 21
-599.99999999999989
 31
0.0
  0
TEXT
  5
3A
  8
HIBINO-BASE
 62
     7
 10
247.23393939393941
 20
-612.26186666666649
 30
0.0
 40
8.1442057291666661
  1
DRAWN
 41
0.8
 11
247.23393939393941
 21
-604.11766093749975
 31
0.0
 73
     3
  0
TEXT
  5
3B
  8
HIBINO-BASE
 62
     7
 10
122.23393939393939
 20
-612.26186666666649
 30
0.0
 40
8.1442057291666661
  1
DATE
 41
0.8
 11
122.23393939393939
 21
-604.11766093749975
 31
0.0
 73
     3
  0
TEXT
  5
3C
  8
HIBINO-BASE
 62
     7
 10
72.233939393939394
 20
-612.26186666666649
 30
0.0
 40
8.1442057291666661
  1
SCALE
 41
0.8
 11
72.233939393939394
 21
-604.11766093749975
 31
0.0
 73
     3
  0
TEXT
  5
3D
  8
HIBINO-BASE
 62
     7
 10
184.73393939393941
 20
-612.26186666666649
 30
0.0
 40
8.1442057291666661
  1
DESIGN
 41
0.8
 11
184.73393939393941
 21
-604.11766093749975
 31
0.0
 73
     3
  0
TEXT
  5
3E
  8
HIBINO-BASE
 62
     7
 10
372.23393939393929
 20
-612.26186666666649
 30
0.0
 40
8.1442057291666661
  1
DRAWING NO.
 41
0.8
 11
372.23393939393929
 21
-604.11766093749975
 31
0.0
 73
     3
  0
TEXT
  5
3F
  8
HIBINO-BASE
 62
     7
 10
309.73393939393929
 20
-612.26186666666649
 30
0.0
 40
8.1442057291666661
  1
CHECK
 41
0.8
 11
309.73393939393929
 21
-604.11766093749975
 31
0.0
 73
     3
  0
LINE
  5
40
  8
HIBINO-BASE
  6
CONTINUOUS
 62
     7
 10
77.108939393939366
 20
-643.75
 30
0.0
 11
95.858939393939394
 21
-624.99999999999989
 31
0.0
  0
TEXT
  5
41
  8
HIBINO-BASE
 62
     7
 10
77.394846838830588
 20
-633.52347858749306
 30
0.0
 40
9.5015733506944446
  1
1
 41
0.8
 11
77.394846838830588
 21
-624.0219052367986
 31
0.0
 73
     3
  0
LINE
  5
42
  8
HIBINO-BASE
  6
CONTINUOUS
 62
     7
 10
67.73393939393938
 20
-650.0
 30
0.0
 11
67.73393939393938
 21
-599.99999999999989
 31
0.0
  0
LINE
  5
43
  8
HIBINO-BASE
  6
CONTINUOUS
 62
     7
 10
117.73393939393939
 20
-650.0
 30
0.0
 11
117.73393939393939
 21
-599.99999999999989
 31
0.0
  0
LINE
  5
44
  8
HIBINO-BASE
  6
CONTINUOUS
 62
     7
 10
242.73393939393929
 20
-599.99999999999989
 30
0.0
 11
242.73393939393929
 21
-650.0
 31
0.0
  0
LINE
  5
45
  8
HIBINO-BASE
  6
CONTINUOUS
 62
     7
 10
367.73393939393929
 20
-599.99999999999989
 30
0.0
 11
367.73393939393929
 21
-650.0
 31
0.0
  0
LINE
  5
46
  8
HIBINO-BASE
  6
CONTINUOUS
 62
     7
 10
305.23393939393929
 20
-650.0
 30
0.0
 11
305.23393939393929
 21
-599.99999999999989
 31
0.0
  0
TEXT
  5
47
  8
HIBINO-BASE
 62
     7
 10
122.0166393939394
 20
-637.19871111111115
 30
0.0
 40
9.5015733506944446
  1
'04.6.
 41
0.8
 11
122.0166393939394
 21
-627.69713776041669
 31
0.0
 73
     3
  0
TEXT
  5
48
  8
HIBINO-BASE
 62
     7
 10
91.759394409684774
 20
-642.89847858749306
 30
0.0
 40
9.5015733506944446
  1
5
 41
0.8
 11
91.759394409684774
 21
-633.3969052367986
 31
0.0
 73
     3
  0
TEXT
  5
49
  8
HIBINO-BASE
 62
     7
 10
24.65060606060614
 20
-640.11999999999989
 30
0.0
 40
16.288411458333329
  1
A4
 41
0.8
 11
24.65060606060614
 21
-623.83158854166652
 31
0.0
 73
     3
  0
TEXT
  5
4A
  8
HIBINO-BASE
 62
     7
 10
10.02560606060606
 20
-613.09727499999985
 30
0.0
 40
8.1442057291666661
  1
PAPER SIZE
 41
0.8
 11
10.02560606060606
 21
-604.95306927083334
 31
0.0
 73
     3
  0
TEXT
  5
4B
  8
HIBINO-BASE
 62
     7
 10
-391.86608443604842
 20
-624.93073715005369
 30
0.0
 40
8.1442057291666661
  1
仕様および外観は予告なく変更されることがありますので、ご了承ください。
 41
0.8
 11
-391.86608443604842
 21
-616.78653142088717
 31
0.0
 73
     3
  0
LINE
  5
4C
  8
SPEC
  6
CONTINUOUS
 62
     7
 10
-399.942780603872
 20
600.03202521605965
 30
0.0
 11
337.55721939612789
 21
600.03202521605965
 31
0.0
  0
LINE
  5
4D
  8
SPEC
  6
CONTINUOUS
 62
     7
 10
-399.942780603872
 20
581.28202521605965
 30
0.0
 11
337.55721939612789
 21
581.28202521605965
 31
0.0
  0
LINE
  5
4E
  8
SPEC
  6
CONTINUOUS
 62
     7
 10
-399.942780603872
 20
506.28202521605971
 30
0.0
 11
337.55721939612789
 21
506.28202521605971
 31
0.0
  0
LINE
  5
4F
  8
SPEC
  6
CONTINUOUS
 62
     7
 10
-399.942780603872
 20
525.03202521605965
 30
0.0
 11
337.55721939612789
 21
525.03202521605965
 31
0.0
  0
LINE
  5
50
  8
SPEC
  6
CONTINUOUS
 62
     7
 10
-399.942780603872
 20
543.78202521605965
 30
0.0
 11
337.55721939612789
 21
543.78202521605965
 31
0.0
  0
LINE
  5
51
  8
SPEC
  6
CONTINUOUS
 62
     7
 10
-399.942780603872
 20
487.53202521605971
 30
0.0
 11
337.55721939612789
 21
487.53202521605971
 31
0.0
  0
LINE
  5
52
  8
SPEC
  6
CONTINUOUS
 62
     7
 10
-399.942780603872
 20
450.03202521605971
 30
0.0
 11
337.55721939612789
 21
450.03202521605971
 31
0.0
  0
LINE
  5
53
  8
SPEC
  6
CONTINUOUS
 62
     7
 10
-399.942780603872
 20
468.78202521605971
 30
0.0
 11
337.55721939612789
 21
468.78202521605971
 31
0.0
  0
LINE
  5
54
  8
SPEC
  6
CONTINUOUS
 62
     7
 10
-399.942780603872
 20
431.28202521605971
 30
0.0
 11
337.55721939612789
 21
431.28202521605971
 31
0.0
  0
LINE
  5
55
  8
SPEC
  6
CONTINUOUS
 62
     7
 10
-399.942780603872
 20
412.53202521605959
 30
0.0
 11
337.55721939612789
 21
412.53202521605959
 31
0.0
  0
LINE
  5
56
  8
SPEC
  6
CONTINUOUS
 62
     7
 10
-399.942780603872
 20
562.53202521605965
 30
0.0
 11
337.55721939612789
 21
562.53202521605965
 31
0.0
  0
LINE
  5
57
  8
SPEC
  6
CONTINUOUS
 62
     7
 10
-399.942780603872
 20
375.03202521605971
 30
0.0
 11
337.55721939612789
 21
375.03202521605971
 31
0.0
  0
LINE
  5
58
  8
SPEC
  6
CONTINUOUS
 62
     7
 10
-399.942780603872
 20
337.53202521605982
 30
0.0
 11
337.55721939612789
 21
337.53202521605982
 31
0.0
  0
LINE
  5
59
  8
SPEC
  6
CONTINUOUS
 62
     7
 10
-399.942780603872
 20
281.28202521605971
 30
0.0
 11
337.55721939612789
 21
281.28202521605971
 31
0.0
  0
LINE
  5
5A
  8
SPEC
  6
CONTINUOUS
 62
     7
 10
-399.942780603872
 20
600.03202521605965
 30
0.0
 11
-399.942780603872
 21
281.28202521605971
 31
0.0
  0
TEXT
  5
5B
  8
SPEC
 62
     7
 10
-386.437066787003
 20
606.99837521605957
 30
0.0
 40
12.21630859375
  1
仕様
 41
0.8
 11
-386.437066787003
 21
619.21468380980957
 31
0.0
 73
     3
  0
LINE
  5
5C
  8
SPEC
  6
CONTINUOUS
 62
     7
 10
-237.44278060387279
 20
600.03202521605965
 30
0.0
 11
-237.44278060387279
 21
281.28202521605971
 31
0.0
  0
LINE
  5
5D
  8
SPEC
  6
CONTINUOUS
 62
     7
 10
337.55721939612789
 20
600.03202521605965
 30
0.0
 11
337.55721939612789
 21
281.28202521605971
 31
0.0
  0
TEXT
  5
5E
  8
SPEC
 62
     7
 10
-395.44278060387211
 20
585.22163321605967
 30
0.0
 40
9.5015562499999984
  1
形式
 41
0.8
 11
-395.44278060387211
 21
594.72318946605958
 31
0.0
 73
     3
  0
LINE
  5
5F
  8
SPEC
  6
CONTINUOUS
 62
     7
 10
-399.942780603872
 20
431.28202521605971
 30
0.0
 11
337.55721939612789
 21
431.28202521605971
 31
0.0
  0
LINE
  5
60
  8
SPEC
  6
CONTINUOUS
 62
     7
 10
-399.942780603872
 20
431.28202521605971
 30
0.0
 11
337.55721939612789
 21
431.28202521605971
 31
0.0
  0
LINE
  5
61
  8
SPEC
  6
CONTINUOUS
 62
     7
 10
-399.942780603872
 20
393.78202521605971
 30
0.0
 11
337.55721939612789
 21
393.78202521605971
 31
0.0
  0
LINE
  5
62
  8
SPEC
  6
CONTINUOUS
 62
     7
 10
-399.942780603872
 20
356.28202521605971
 30
0.0
 11
337.55721939612789
 21
356.28202521605971
 31
0.0
  0
LINE
  5
63
  8
SPEC
  6
CONTINUOUS
 62
     7
 10
-399.942780603872
 20
318.78202521605982
 30
0.0
 11
337.55721939612789
 21
318.78202521605982
 31
0.0
  0
LINE
  5
64
  8
SPEC
  6
CONTINUOUS
 62
     7
 10
-399.942780603872
 20
300.03202521605982
 30
0.0
 11
337.55721939612789
 21
300.03202521605982
 31
0.0
  0
TEXT
  5
65
  8
SPEC
 62
     7
 10
-229.99869629368359
 20
585.98138888888877
 30
0.0
 40
9.5015733506944446
  1
音響出力系マルチプロセッサ
 41
0.8
 11
-229.99869629368359
 21
595.48296223958334
 31
0.0
 73
     3
  0
TEXT
  5
66
  8
SPEC
 62
     7
 10
-395.15165699805311
 20
567.19119497238682
 30
0.0
 40
9.5015733506944446
  1
音声入力
 41
0.8
 11
-395.15165699805311
 21
576.69276832308128
 31
0.0
 73
     3
  0
TEXT
  5
67
  8
SPEC
 62
     7
 10
-230.19420204217309
 20
548.20950773487641
 30
0.0
 40
9.5015733506944446
  1
端子・型式　XLR/ユーロブロック、電子バランス
 41
0.8
 11
-230.19420204217309
 21
557.71108108557087
 31
0.0
 73
     3
  0
TEXT
  5
68
  8
SPEC
 62
     7
 10
-230.6910709547214
 20
529.24472894626183
 30
0.0
 40
9.5015733506944446
  1
インピーダンス　50kΩ
 41
0.8
 11
-230.6910709547214
 21
538.74630229695617
 31
0.0
 73
     3
  0
TEXT
  5
69
  8
SPEC
 62
     7
 10
-230.68234941970951
 20
436.03952618031201
 30
0.0
 40
9.5015733506944446
  1
インピーダンス　120Ω
 41
0.8
 11
-230.68234941970951
 21
445.54109953100652
 31
0.0
 73
     3
  0
TEXT
  5
6A
  8
SPEC
 62
     7
 10
-395.24611112673642
 20
379.30086680794028
 30
0.0
 40
9.5015733506944446
  1
周波数特性
 41
0.8
 11
-395.24611112673642
 21
388.80244015863479
 31
0.0
 73
     3
  0
TEXT
  5
6B
  8
SPEC
 62
     7
 10
-395.13074011202912
 20
360.86215764320758
 30
0.0
 40
9.5015733506944446
  1
THD＋N
 41
0.8
 11
-395.13074011202912
 21
370.36373099390198
 31
0.0
 73
     3
  0
TEXT
  5
6C
  8
SPEC
 62
     7
 10
-229.82301417967591
 20
360.786398929732
 30
0.0
 40
9.5015733506944446
  1
0.003％（+4dBu,1kHz,0dBゲイン）
 41
0.8
 11
-229.82301417967591
 21
370.2879722804264
 31
0.0
 73
     3
  0
TEXT
  5
6D
  8
SPEC
 62
     7
 10
-395.45001858891692
 20
323.43555855898637
 30
0.0
 40
9.5015733506944446
  1
電源
 41
0.8
 11
-395.45001858891692
 21
332.93713190968077
 31
0.0
 73
     3
  0
TEXT
  5
6E
  8
SPEC
 62
     7
 10
-229.55729391413459
 20
323.39778054721558
 30
0.0
 40
9.5015733506944446
  1
AC100V、50/60Hz
 41
0.8
 11
-229.55729391413459
 21
332.89935389791009
 31
0.0
 73
     3
  0
TEXT
  5
6F
  8
SPEC
 62
     7
 10
-395.38094865455741
 20
305.06168615907092
 30
0.0
 40
9.5015733506944446
  1
消費電力
 41
0.8
 11
-395.38094865455741
 21
314.56325950976537
 31
0.0
 73
     3
  0
TEXT
  5
70
  8
SPEC
 62
     7
 10
-230.57620607626549
 20
304.83958828926279
 30
0.0
 40
9.5015733506944446
  1
12W
 41
0.8
 11
-230.57620607626549
 21
314.34116163995731
 31
0.0
 73
     3
  0
TEXT
  5
71
  8
SPEC
 62
     7
 10
-395.57580323020278
 20
285.52305487585801
 30
0.0
 40
9.5015733506944446
  1
寸法（W x H x D）・重量　
 41
0.8
 11
-395.57580323020278
 21
295.02462822655252
 31
0.0
 73
     3
  0
TEXT
  5
72
  8
SPEC
 62
     7
 10
-229.87023608431721
 20
285.91937057956039
 30
0.0
 40
9.5015733506944446
  1
483X45X150mm（突起部含まず）、2.3Kg
 41
0.8
 11
-229.87023608431721
 21
295.42094393025491
 31
0.0
 73
     3
  0
TEXT
  5
73
  8
SPEC
 62
     7
 10
-229.86881809952149
 20
379.80112660440432
 30
0.0
 40
9.5015733506944446
  1
20Hz～20kHz（±0.5dB）
 41
0.8
 11
-229.86881809952149
 21
389.30269995509872
 31
0.0
 73
     3
  0
TEXT
  5
74
  8
SPEC
 62
     7
 10
-229.99412106339761
 20
398.18601943143551
 30
0.0
 40
9.5015733506944446
  1
24ビット、48kHz
 41
0.8
 11
-229.99412106339761
 21
407.68759278213003
 31
0.0
 73
     3
  0
TEXT
  5
75
  8
SPEC
 62
     7
 10
-395.06475787902258
 20
473.33543341719331
 30
0.0
 40
9.5015733506944446
  1
音声出力
 41
0.8
 11
-395.06475787902258
 21
482.83700676788771
 31
0.0
 73
     3
  0
TEXT
  5
76
  8
SPEC
 62
     7
 10
-230.0327650822166
 20
416.7380121292727
 30
0.0
 40
9.5015733506944446
  1
最大レベル　+20dBu
 41
0.8
 11
-230.0327650822166
 21
426.23958547996722
 31
0.0
 73
     3
  0
TEXT
  5
77
  8
SPEC
 62
     7
 10
-394.83385613485632
 20
398.54532201677921
 30
0.0
 40
9.5015733506944446
  1
A/D-D/A変換
 41
0.8
 11
-394.83385613485632
 21
408.04689536747372
 31
0.0
 73
     3
  0
TEXT
  5
78
  8
SPEC
 62
     7
 10
-230.5820097610642
 20
567.3277833374076
 30
0.0
 40
9.5015733506944446
  1
チャンネル数　2
 41
0.8
 11
-230.5820097610642
 21
576.82935668810217
 31
0.0
 73
     3
  0
TEXT
  5
79
  8
SPEC
 62
     7
 10
-230.57366779452931
 20
473.4423869393832
 30
0.0
 40
9.5015733506944446
  1
チャンネル数　2
 41
0.8
 11
-230.57366779452931
 21
482.94396029007783
 31
0.0
 73
     3
  0
TEXT
  5
7A
  8
SPEC
 62
     7
 10
-231.4188120992917
 20
491.76102428998871
 30
0.0
 40
9.5015733506944446
  1
ファンタム電源　15V
 41
0.8
 11
-231.4188120992917
 21
501.26259764068323
 31
0.0
 73
     3
  0
TEXT
  5
7B
  8
SPEC
 62
     7
 10
-396.15171586713439
 20
342.00628581268109
 30
0.0
 40
9.5015733506944446
  1
ダイナミックレンジ
 41
0.8
 11
-396.15171586713439
 21
351.5078591633756
 31
0.0
 73
     3
  0
TEXT
  5
7C
  8
SPEC
 62
     7
 10
-230.55932566058669
 20
342.31659647126872
 30
0.0
 40
9.5015733506944446
  1
110dB(Aウェイト）
 41
0.8
 11
-230.55932566058669
 21
351.81816982196318
 31
0.0
 73
     3
  0
TEXT
  5
7D
  8
SPEC
 62
     7
 10
-230.03122333192951
 20
510.70862108463922
 30
0.0
 40
9.5015733506944446
  1
最大レベル　+20dBu
 41
0.8
 11
-230.03122333192951
 21
520.21019443533373
 31
0.0
 73
     3
  0
TEXT
  5
7E
  8
SPEC
 62
     7
 10
-230.16915961839069
 20
454.57447292704978
 30
0.0
 40
9.5015733506944446
  1
端子・型式　XLR/ユーロブロック、電子バランス
 41
0.8
 11
-230.16915961839069
 21
464.07604627774418
 31
0.0
 73
     3
  0
TEXT
  5
7F
  8
DIMNSIONS
 62
     7
 10
-94.766060606060606
 20
-588.65255000000002
 30
0.0
 40
12.21630859375
  1
(単位：mm)
 41
0.8
 11
-94.766060606060606
 21
-576.43624140625002
 31
0.0
 73
     3
  0
LINE
  5
80
  8
DIMNSIONS
  6
CONTINUOUS
 62
     7
 10
-389.3575431927942
 20
-279.84638818737108
 30
0.0
 11
-410.8575431927942
 21
-279.84638818737108
 31
0.0
  0
LINE
  5
81
  8
DIMNSIONS
  6
CONTINUOUS
 62
     7
 10
-389.3575431927942
 20
-130.3463881873717
 30
0.0
 11
-410.8575431927942
 21
-130.3463881873717
 31
0.0
  0
LINE
  5
82
  8
DIMNSIONS
  6
CONTINUOUS
 62
     7
 10
-400.85754319279408
 20
-279.84638818737108
 30
0.0
 11
-400.85754319279408
 21
-130.3463881873717
 31
0.0
  0
LINE
  5
83
  8
DIMNSIONS
  6
CONTINUOUS
 62
     7
 10
-400.85754319279408
 20
-279.84638818737108
 30
0.0
 11
-404.20774216854528
 21
-267.34327539440238
 31
0.0
  0
LINE
  5
84
  8
DIMNSIONS
  6
CONTINUOUS
 62
     7
 10
-400.85754319279408
 20
-279.84638818737108
 30
0.0
 11
-397.507344217043
 21
-267.34327539440238
 31
0.0
  0
LINE
  5
85
  8
DIMNSIONS
  6
CONTINUOUS
 62
     7
 10
-400.85754319279408
 20
-130.3463881873717
 30
0.0
 11
-397.507344217043
 21
-142.84950098034039
 31
0.0
  0
LINE
  5
86
  8
DIMNSIONS
  6
CONTINUOUS
 62
     7
 10
-400.85754319279408
 20
-130.3463881873717
 30
0.0
 11
-404.20774216854528
 21
-142.84950098034039
 31
0.0
  0
TEXT
  5
87
  8
DIMNSIONS
 62
     7
 10
-404.0630987483496
 20
-217.00263902845921
 30
0.0
 40
13.57367621527778
  1
150
 50
90.0
 41
0.8
 11
-417.63677496362737
 21
-217.00263902845921
 31
0.0
 73
     3
  0
LINE
  5
88
  8
DIMNSIONS
  6
CONTINUOUS
 62
     7
 10
-389.3575431927942
 20
-279.84638818737108
 30
0.0
 11
-367.81958795106198
 21
-279.84638818737108
 31
0.0
  0
LINE
  5
89
  8
DIMNSIONS
  6
CONTINUOUS
 62
     7
 10
-389.3575431927942
 20
-130.3463881873717
 30
0.0
 11
-348.81958795106198
 21
-130.3463881873717
 31
0.0
  0
LINE
  5
8A
  8
DIMNSIONS
  6
CONTINUOUS
 62
     7
 10
-367.99338283682442
 20
-279.84638818737108
 30
0.0
 11
-383.79338283682432
 21
-279.84638818737108
 31
0.0
  0
LINE
  5
8B
  8
DIMNSIONS
  6
CONTINUOUS
 62
     7
 10
-367.99338283682442
 20
-276.84638818737108
 30
0.0
 11
-383.79338283682432
 21
-276.84638818737108
 31
0.0
  0
LINE
  5
8C
  8
DIMNSIONS
  6
CONTINUOUS
 62
     7
 10
-373.79338283682432
 20
-276.84638818737108
 30
0.0
 11
-373.79338283682432
 21
-279.84638818737108
 31
0.0
  0
LINE
  5
8D
  8
DIMNSIONS
  6
CONTINUOUS
 62
     7
 10
-373.79338283682432
 20
-279.84638818737108
 30
0.0
 11
-373.79338283682432
 21
-304.84638818737119
 31
0.0
  0
LINE
  5
8E
  8
DIMNSIONS
  6
CONTINUOUS
 62
     7
 10
-373.79338283682432
 20
-279.84638818737108
 30
0.0
 11
-370.44318386107318
 21
-292.34950098033988
 31
0.0
  0
LINE
  5
8F
  8
DIMNSIONS
  6
CONTINUOUS
 62
     7
 10
-373.79338283682432
 20
-279.84638818737108
 30
0.0
 11
-377.14358181257558
 21
-292.34950098033988
 31
0.0
  0
LINE
  5
90
  8
DIMNSIONS
  6
CONTINUOUS
 62
     7
 10
-373.79338283682432
 20
-276.84638818737108
 30
0.0
 11
-373.79338283682432
 21
-262.11604956124518
 31
0.0
  0
LINE
  5
91
  8
DIMNSIONS
  6
CONTINUOUS
 62
     7
 10
-373.79338283682432
 20
-276.84638818737108
 30
0.0
 11
-377.14358181257558
 21
-264.34327539440238
 31
0.0
  0
LINE
  5
92
  8
DIMNSIONS
  6
CONTINUOUS
 62
     7
 10
-373.79338283682432
 20
-276.84638818737108
 30
0.0
 11
-370.44318386107318
 21
-264.34327539440238
 31
0.0
  0
TEXT
  5
93
  8
DIMNSIONS
 62
     7
 10
-376.99893839238001
 20
-270.05354956124518
 30
0.0
 40
13.57367621527778
  1
3
 50
90.0
 41
0.8
 11
-390.57261460765778
 21
-270.05354956124518
 31
0.0
 73
     3
  0
LINE
  5
94
  8
DIMNSIONS
  6
CONTINUOUS
 62
     7
 10
-338.16319342737222
 20
-106.7435886442543
 30
0.0
 11
-338.16319342737222
 21
-77.250750018127874
 31
0.0
  0
LINE
  5
95
  8
DIMNSIONS
  6
CONTINUOUS
 62
     7
 10
99.836806572626813
 20
-106.7435886442543
 30
0.0
 11
99.836806572626813
 21
-77.250750018127874
 31
0.0
  0
LINE
  5
96
  8
DIMNSIONS
  6
CONTINUOUS
 62
     7
 10
-338.16319342737222
 20
-87.250750018127874
 30
0.0
 11
99.836806572626813
 21
-87.250750018127874
 31
0.0
  0
LINE
  5
97
  8
DIMNSIONS
  6
CONTINUOUS
 62
     7
 10
-338.16319342737222
 20
-87.250750018127874
 30
0.0
 11
-325.66008063440353
 21
-83.900551042376648
 31
0.0
  0
LINE
  5
98
  8
DIMNSIONS
  6
CONTINUOUS
 62
     7
 10
-338.16319342737222
 20
-87.250750018127874
 30
0.0
 11
-325.66008063440353
 21
-90.600948993879072
 31
0.0
  0
LINE
  5
99
  8
DIMNSIONS
  6
CONTINUOUS
 62
     7
 10
99.836806572626813
 20
-87.250750018127874
 30
0.0
 11
87.333693779658049
 21
-90.600948993879072
 31
0.0
  0
LINE
  5
9A
  8
DIMNSIONS
  6
CONTINUOUS
 62
     7
 10
99.836806572626813
 20
-87.250750018127874
 30
0.0
 11
87.333693779658049
 21
-83.900551042376648
 31
0.0
  0
TEXT
  5
9B
  8
DIMNSIONS
 62
     7
 10
-131.06944426846039
 20
-84.04519446257234
 30
0.0
 40
13.57367621527778
  1
438
 41
0.8
 11
-131.06944426846039
 21
-70.471518247294554
 31
0.0
 73
     3
  0
LINE
  5
9C
  8
DIMNSIONS
  6
CONTINUOUS
 62
     7
 10
-338.16319342737222
 20
-105.9609365947292
 30
0.0
 11
-338.16319342737222
 21
-120.8535495612452
 31
0.0
  0
LINE
  5
9D
  8
DIMNSIONS
  6
CONTINUOUS
 62
     7
 10
-340.48390945468827
 20
-123.8535495612453
 30
0.0
 11
-340.48390945468827
 21
-40.853549561245273
 31
0.0
  0
LINE
  5
9E
  8
DIMNSIONS
  6
CONTINUOUS
 62
     7
 10
102.0447185995905
 20
-123.19856524416051
 30
0.0
 11
102.0447185995905
 21
-40.853549561245273
 31
0.0
  0
LINE
  5
9F
  8
DIMNSIONS
  6
CONTINUOUS
 62
     7
 10
-340.48390945468827
 20
-50.853549561245259
 30
0.0
 11
102.0447185995905
 21
-50.853549561245259
 31
0.0
  0
LINE
  5
A0
  8
DIMNSIONS
  6
CONTINUOUS
 62
     7
 10
-340.48390945468827
 20
-50.853549561245259
 30
0.0
 11
-327.98079666171952
 21
-47.503350585494047
 31
0.0
  0
LINE
  5
A1
  8
DIMNSIONS
  6
CONTINUOUS
 62
     7
 10
-340.48390945468827
 20
-50.853549561245259
 30
0.0
 11
-327.98079666171952
 21
-54.203748536996478
 31
0.0
  0
LINE
  5
A2
  8
DIMNSIONS
  6
CONTINUOUS
 62
     7
 10
102.0447185995905
 20
-50.853549561245259
 30
0.0
 11
89.541605806621817
 21
-54.203748536996478
 31
0.0
  0
LINE
  5
A3
  8
DIMNSIONS
  6
CONTINUOUS
 62
     7
 10
102.0447185995905
 20
-50.853549561245259
 30
0.0
 11
89.541605806621817
 21
-47.503350585494047
 31
0.0
  0
TEXT
  5
A4
  8
DIMNSIONS
 62
     7
 10
-131.12584626863659
 20
-47.647994005689696
 30
0.0
 40
13.57367621527778
  1
443
 41
0.8
 11
-131.12584626863659
 21
-34.074317790411932
 31
0.0
 73
     3
  0
LINE
  5
A5
  8
DIMNSIONS
  6
CONTINUOUS
 62
     7
 10
-340.48390945468827
 20
-123.8535495612452
 30
0.0
 11
-340.48390945468827
 21
-139.8535495612453
 31
0.0
  0
LINE
  5
A6
  8
DIMNSIONS
  6
CONTINUOUS
 62
     7
 10
99.836806572626813
 20
-106.7435886442542
 30
0.0
 11
99.836806572626813
 21
-120.8535495612452
 31
0.0
  0
LINE
  5
A7
  8
DIMNSIONS
  6
CONTINUOUS
 62
     7
 10
-388.5
 20
-279.84638818737108
 30
0.0
 11
-410.8575431927942
 21
-279.84638818737108
 31
0.0
  0
LINE
  5
A8
  8
DIMNSIONS
  6
CONTINUOUS
 62
     7
 10
-400.85754319279408
 20
-279.84638818737108
 30
0.0
 11
-400.85754319279408
 21
-254.8463881873711
 31
0.0
  0
LINE
  5
A9
  8
DIMNSIONS
  6
CONTINUOUS
 62
     7
 10
-400.85754319279408
 20
-279.84638818737108
 30
0.0
 11
-404.20774216854528
 21
-267.34327539440238
 31
0.0
  0
LINE
  5
AA
  8
DIMNSIONS
  6
CONTINUOUS
 62
     7
 10
-400.85754319279408
 20
-279.84638818737108
 30
0.0
 11
-397.507344217043
 21
-267.34327539440238
 31
0.0
  0
LINE
  5
AB
  8
DIMNSIONS
  6
CONTINUOUS
 62
     7
 10
-381.0
 20
-130.3463881873717
 30
0.0
 11
-410.8575431927942
 21
-130.3463881873717
 31
0.0
  0
LINE
  5
AC
  8
DIMNSIONS
  6
CONTINUOUS
 62
     7
 10
-400.85754319279408
 20
-130.3463881873717
 30
0.0
 11
-400.85754319279408
 21
-155.3463881873717
 31
0.0
  0
LINE
  5
AD
  8
DIMNSIONS
  6
CONTINUOUS
 62
     7
 10
-400.85754319279408
 20
-130.3463881873717
 30
0.0
 11
-397.507344217043
 21
-142.84950098034039
 31
0.0
  0
LINE
  5
AE
  8
DIMNSIONS
  6
CONTINUOUS
 62
     7
 10
-400.85754319279408
 20
-130.3463881873717
 30
0.0
 11
-404.20774216854528
 21
-142.84950098034039
 31
0.0
  0
LINE
  5
AF
  8
DIMNSIONS
  6
CONTINUOUS
 62
     7
 10
-360.04129757352689
 20
-461.21010071801322
 30
0.0
 11
-360.04129757352689
 21
-445.0
 31
0.0
  0
LINE
  5
B0
  8
DIMNSIONS
  6
CONTINUOUS
 62
     7
 10
-360.04129757352689
 20
-452.59084550971909
 30
0.0
 11
-360.04129757352689
 21
-489.79183948601877
 31
0.0
  0
LINE
  5
B1
  8
DIMNSIONS
  6
CONTINUOUS
 62
     7
 10
122.9587024264731
 20
-452.59084550971909
 30
0.0
 11
122.9587024264731
 21
-489.79183948601877
 31
0.0
  0
LINE
  5
B2
  8
DIMNSIONS
  6
CONTINUOUS
 62
     7
 10
-360.04129757352689
 20
-479.79183948601877
 30
0.0
 11
122.9587024264731
 21
-479.79183948601877
 31
0.0
  0
LINE
  5
B3
  8
DIMNSIONS
  6
CONTINUOUS
 62
     7
 10
-360.04129757352689
 20
-479.79183948601877
 30
0.0
 11
-347.53818478055808
 21
-476.44164051026758
 31
0.0
  0
LINE
  5
B4
  8
DIMNSIONS
  6
CONTINUOUS
 62
     7
 10
-360.04129757352689
 20
-479.79183948601877
 30
0.0
 11
-347.53818478055808
 21
-483.14203846176991
 31
0.0
  0
LINE
  5
B5
  8
DIMNSIONS
  6
CONTINUOUS
 62
     7
 10
122.9587024264731
 20
-479.79183948601877
 30
0.0
 11
110.4555896335043
 21
-483.14203846176991
 31
0.0
  0
LINE
  5
B6
  8
DIMNSIONS
  6
CONTINUOUS
 62
     7
 10
122.9587024264731
 20
-479.79183948601877
 30
0.0
 11
110.4555896335043
 21
-476.44164051026758
 31
0.0
  0
TEXT
  5
B7
  8
DIMNSIONS
 62
     7
 10
-130.44754841461469
 20
-476.5862839304632
 30
0.0
 40
13.57367621527778
  1
483
 41
0.8
 11
-130.44754841461469
 21
-463.01260771518548
 31
0.0
 73
     3
  0
LINE
  5
B8
  8
DIMNSIONS
  6
CONTINUOUS
 62
     7
 10
122.9587024264731
 20
-452.59084550971909
 30
0.0
 11
122.9587024264731
 21
-445.0
 31
0.0
  0
LINE
  5
B9
  8
DIMNSIONS
  6
CONTINUOUS
 62
     7
 10
-370.04129757352689
 20
-394.99900602370019
 30
0.0
 11
-365.30384187578659
 21
-394.99900602370019
 31
0.0
  0
LINE
  5
BA
  8
DIMNSIONS
  6
CONTINUOUS
 62
     7
 10
-370.04129757352689
 20
-439.99900602370008
 30
0.0
 11
-365.30384187578659
 21
-439.99900602370008
 31
0.0
  0
LINE
  5
BB
  8
DIMNSIONS
  6
CONTINUOUS
 62
     7
 10
-370.0
 20
-440.0
 30
0.0
 11
-409.95757688744033
 21
-440.0
 31
0.0
  0
LINE
  5
BC
  8
DIMNSIONS
  6
CONTINUOUS
 62
     7
 10
-370.0
 20
-394.99900602370019
 30
0.0
 11
-409.95757688744033
 21
-394.99900602370019
 31
0.0
  0
LINE
  5
BD
  8
DIMNSIONS
  6
CONTINUOUS
 62
     7
 10
-399.95757688744033
 20
-440.0
 30
0.0
 11
-399.95757688744033
 21
-394.99900602370019
 31
0.0
  0
LINE
  5
BE
  8
DIMNSIONS
  6
CONTINUOUS
 62
     7
 10
-399.95757688744033
 20
-440.0
 30
0.0
 11
-403.30777586319152
 21
-427.49688720703119
 31
0.0
  0
LINE
  5
BF
  8
DIMNSIONS
  6
CONTINUOUS
 62
     7
 10
-399.95757688744033
 20
-440.0
 30
0.0
 11
-396.6073779116893
 21
-427.49688720703119
 31
0.0
  0
LINE
  5
C0
  8
DIMNSIONS
  6
CONTINUOUS
 62
     7
 10
-399.95757688744033
 20
-394.99900602370019
 30
0.0
 11
-396.6073779116893
 21
-407.50211881666888
 31
0.0
  0
LINE
  5
C1
  8
DIMNSIONS
  6
CONTINUOUS
 62
     7
 10
-399.95757688744033
 20
-394.99900602370019
 30
0.0
 11
-403.30777586319152
 21
-407.50211881666888
 31
0.0
  0
TEXT
  5
C2
  8
DIMNSIONS
 62
     7
 10
-404.9270213318847
 20
-426.3189474562945
 30
0.0
 40
13.57367621527778
  1
45
 50
90.0
 41
0.8
 11
-418.50069754716247
 21
-426.3189474562945
 31
0.0
 73
     3
  0
LINE
  5
C3
  8
DIMNSIONS
  6
CONTINUOUS
 62
     7
 10
102.0447185995905
 20
-123.19856524416041
 30
0.0
 11
102.0447185995905
 21
-139.3535495612453
 31
0.0
  0
LINE
  5
C4
  8
DIMNSIONS
  6
CONTINUOUS
 62
     7
 10
-368.954076761495
 20
-130.3463881873717
 30
0.0
 11
-410.8575431927942
 21
-130.3463881873717
 31
0.0
  0
LINE
  5
C5
  8
DIMNSIONS
  6
CONTINUOUS
 62
     7
 10
-368.954076761495
 20
-125.34999999999989
 30
0.0
 11
-410.8575431927942
 21
-125.34999999999989
 31
0.0
  0
LINE
  5
C6
  8
DIMNSIONS
  6
CONTINUOUS
 62
     7
 10
-400.85754319279408
 20
-125.34999999999989
 30
0.0
 11
-400.85754319279408
 21
-130.3463881873717
 31
0.0
  0
LINE
  5
C7
  8
DIMNSIONS
  6
CONTINUOUS
 62
     7
 10
-400.85754319279408
 20
-130.3463881873717
 30
0.0
 11
-400.85754319279408
 21
-155.3463881873717
 31
0.0
  0
LINE
  5
C8
  8
DIMNSIONS
  6
CONTINUOUS
 62
     7
 10
-400.85754319279408
 20
-130.3463881873717
 30
0.0
 11
-397.507344217043
 21
-142.84950098034039
 31
0.0
  0
LINE
  5
C9
  8
DIMNSIONS
  6
CONTINUOUS
 62
     7
 10
-400.85754319279408
 20
-130.3463881873717
 30
0.0
 11
-404.20774216854528
 21
-142.84950098034039
 31
0.0
  0
LINE
  5
CA
  8
DIMNSIONS
  6
CONTINUOUS
 62
     7
 10
-400.85754319279408
 20
-125.34999999999989
 30
0.0
 11
-400.85754319279408
 21
-103.1805555555555
 31
0.0
  0
LINE
  5
CB
  8
DIMNSIONS
  6
CONTINUOUS
 62
     7
 10
-400.85754319279408
 20
-125.34999999999989
 30
0.0
 11
-404.20774216854528
 21
-112.8468872070312
 31
0.0
  0
LINE
  5
CC
  8
DIMNSIONS
  6
CONTINUOUS
 62
     7
 10
-400.85754319279408
 20
-125.34999999999989
 30
0.0
 11
-397.507344217043
 21
-112.8468872070312
 31
0.0
  0
TEXT
  5
CD
  8
DIMNSIONS
 62
     7
 10
-405.82698763723869
 20
-112.0
 30
0.0
 40
13.57367621527778
  1
4
 50
90.0
 41
0.8
 11
-419.40066385251652
 21
-112.0
 31
0.0
 73
     3
  0
LINE
  5
CE
  8
DIMNSIONS
  6
CONTINUOUS
 62
     7
 10
-368.954076761495
 20
-125.34999999999989
 30
0.0
 11
-322.0
 21
-125.34999999999989
 31
0.0
  0
LINE
  5
CF
  8
DIMNSIONS
  6
CONTINUOUS
 62
     7
 10
-395.5
 20
-283.0
 30
0.0
 11
-410.8575431927942
 21
-283.0
 31
0.0
  0
LINE
  5
D0
  8
DIMNSIONS
  6
CONTINUOUS
 62
     7
 10
-395.5
 20
-279.84638818737108
 30
0.0
 11
-410.8575431927942
 21
-279.84638818737108
 31
0.0
  0
LINE
  5
D1
  8
DIMNSIONS
  6
CONTINUOUS
 62
     7
 10
-400.85754319279408
 20
-279.84638818737108
 30
0.0
 11
-400.85754319279408
 21
-283.0
 31
0.0
  0
LINE
  5
D2
  8
DIMNSIONS
  6
CONTINUOUS
 62
     7
 10
-400.85754319279408
 20
-283.0
 30
0.0
 11
-400.85754319279408
 21
-307.31944444444451
 31
0.0
  0
LINE
  5
D3
  8
DIMNSIONS
  6
CONTINUOUS
 62
     7
 10
-400.85754319279408
 20
-283.0
 30
0.0
 11
-397.507344217043
 21
-295.50311279296881
 31
0.0
  0
LINE
  5
D4
  8
DIMNSIONS
  6
CONTINUOUS
 62
     7
 10
-400.85754319279408
 20
-283.0
 30
0.0
 11
-404.20774216854528
 21
-295.50311279296881
 31
0.0
  0
LINE
  5
D5
  8
DIMNSIONS
  6
CONTINUOUS
 62
     7
 10
-400.85754319279408
 20
-279.84638818737108
 30
0.0
 11
-400.85754319279408
 21
-254.8463881873711
 31
0.0
  0
LINE
  5
D6
  8
DIMNSIONS
  6
CONTINUOUS
 62
     7
 10
-400.85754319279408
 20
-279.84638818737108
 30
0.0
 11
-404.20774216854528
 21
-267.34327539440238
 31
0.0
  0
LINE
  5
D7
  8
DIMNSIONS
  6
CONTINUOUS
 62
     7
 10
-400.85754319279408
 20
-279.84638818737108
 30
0.0
 11
-397.507344217043
 21
-267.34327539440238
 31
0.0
  0
TEXT
  5
D8
  8
DIMNSIONS
 62
     7
 10
-405.82698763723869
 20
-307.31944444444451
 30
0.0
 40
13.57367621527778
  1
3
 50
90.0
 41
0.8
 11
-419.40066385251652
 21
-307.31944444444451
 31
0.0
 73
     3
  0
LINE
  5
D9
  8
DIMNSIONS
  6
CONTINUOUS
 62
     7
 10
-395.5
 20
-283.0
 30
0.0
 11
-215.8075396694727
 21
-283.0
 31
0.0
  0
POLYLINE
  5
DA
  8
DATA
  6
CONTINUOUS
 62
     7
 66
     1
 10
0.0
 20
0.0
 30
0.0
 70
     1
  0
VERTEX
  5
AD7
  8
DATA
  6
CONTINUOUS
 62
     7
 10
220.0569666364668
 20
-395.85967721775569
 30
0.0
  0
VERTEX
  5
AD8
  8
DATA
  6
CONTINUOUS
 62
     7
 10
220.0569666364668
 20
-440.25967721775561
 30
0.0
  0
VERTEX
  5
AD9
  8
DATA
  6
CONTINUOUS
 62
     7
 10
369.05696663646762
 20
-440.25967721775561
 30
0.0
  0
VERTEX
  5
ADA
  8
DATA
  6
CONTINUOUS
 62
     7
 10
369.05696663646762
 20
-395.85967721775569
 30
0.0
  0
SEQEND
  5
ADB
  8
DATA
  6
CONTINUOUS
 62
     7
  0
POLYLINE
  5
E0
  8
DATA
  6
CONTINUOUS
 62
     7
 66
     1
 10
0.0
 20
0.0
 30
0.0
 70
     1
  0
VERTEX
  5
ADC
  8
DATA
  6
CONTINUOUS
 62
     7
 10
-360.16319342737228
 20
-276.84638818737108
 30
0.0
  0
VERTEX
  5
ADD
  8
DATA
  6
CONTINUOUS
 62
     7
 10
121.8368065726268
 20
-276.84638818737108
 30
0.0
  0
VERTEX
  5
ADE
  8
DATA
  6
CONTINUOUS
 62
     7
 10
121.8368065726268
 20
-279.84638818737108
 30
0.0
  0
VERTEX
  5
ADF
  8
DATA
  6
CONTINUOUS
 62
     7
 10
-360.16319342737228
 20
-279.84638818737108
 30
0.0
  0
SEQEND
  5
AE0
  8
DATA
  6
CONTINUOUS
 62
     7
  0
ARC
  5
E6
  8
DATA
  6
CONTINUOUS
 62
     7
 10
-352.84129757352679
 20
-401.99900602370019
 30
0.0
 40
3.1999999999999882
 50
90.0
 51
270.0
  0
ARC
  5
E7
  8
DATA
  6
CONTINUOUS
 62
     7
 10
-348.24129757352688
 20
-401.99900602370019
 30
0.0
 40
3.1999999999999882
 50
270.0
 51
90.0
  0
LINE
  5
E8
  8
DATA
  6
CONTINUOUS
 62
     7
 10
-352.84129757352679
 20
-398.79900602370031
 30
0.0
 11
-348.24129757352688
 21
-398.79900602370031
 31
0.0
  0
LINE
  5
E9
  8
DATA
  6
CONTINUOUS
 62
     7
 10
-352.84129757352679
 20
-405.19900602370018
 30
0.0
 11
-348.24129757352688
 21
-405.19900602370018
 31
0.0
  0
ARC
  5
EA
  8
DATA
  6
CONTINUOUS
 62
     7
 10
112.1587024264722
 20
-401.99900602370019
 30
0.0
 40
3.1999999999999882
 50
90.0
 51
270.0
  0
ARC
  5
EB
  8
DATA
  6
CONTINUOUS
 62
     7
 10
116.7587024264721
 20
-401.99900602370019
 30
0.0
 40
3.1999999999999882
 50
270.0
 51
90.0
  0
LINE
  5
EC
  8
DATA
  6
CONTINUOUS
 62
     7
 10
112.1587024264722
 20
-398.79900602370031
 30
0.0
 11
116.7587024264721
 21
-398.79900602370031
 31
0.0
  0
LINE
  5
ED
  8
DATA
  6
CONTINUOUS
 62
     7
 10
112.1587024264722
 20
-405.19900602370018
 30
0.0
 11
116.7587024264721
 21
-405.19900602370018
 31
0.0
  0
ARC
  5
EE
  8
DATA
  6
CONTINUOUS
 62
     7
 10
-352.84129757352679
 20
-433.59900602370021
 30
0.0
 40
3.1999999999999882
 50
90.0
 51
270.0
  0
ARC
  5
EF
  8
DATA
  6
CONTINUOUS
 62
     7
 10
-348.24129757352688
 20
-433.59900602370021
 30
0.0
 40
3.1999999999999882
 50
270.0
 51
90.0
  0
LINE
  5
F0
  8
DATA
  6
CONTINUOUS
 62
     7
 10
-352.84129757352679
 20
-436.7990060237002
 30
0.0
 11
-348.24129757352688
 21
-436.7990060237002
 31
0.0
  0
LINE
  5
F1
  8
DATA
  6
CONTINUOUS
 62
     7
 10
-352.84129757352679
 20
-430.39900602370022
 30
0.0
 11
-348.24129757352688
 21
-430.39900602370022
 31
0.0
  0
ARC
  5
F2
  8
DATA
  6
CONTINUOUS
 62
     7
 10
112.1587024264722
 20
-433.59900602370021
 30
0.0
 40
3.1999999999999882
 50
90.0
 51
270.0
  0
ARC
  5
F3
  8
DATA
  6
CONTINUOUS
 62
     7
 10
116.7587024264721
 20
-433.59900602370021
 30
0.0
 40
3.1999999999999882
 50
270.0
 51
90.0
  0
LINE
  5
F4
  8
DATA
  6
CONTINUOUS
 62
     7
 10
112.1587024264722
 20
-436.7990060237002
 30
0.0
 11
116.7587024264721
 21
-436.7990060237002
 31
0.0
  0
LINE
  5
F5
  8
DATA
  6
CONTINUOUS
 62
     7
 10
112.1587024264722
 20
-430.39900602370022
 30
0.0
 11
116.7587024264721
 21
-430.39900602370022
 31
0.0
  0
CIRCLE
  5
F6
  8
DATA
  6
CONTINUOUS
 62
     7
 10
-118.0412975735278
 20
-400.6061113335283
 30
0.0
 40
2.7999999999999958
  0
POLYLINE
  5
F7
  8
DATA
  6
CONTINUOUS
 62
     7
 66
     1
 10
0.0
 20
0.0
 30
0.0
 70
     1
  0
VERTEX
  5
AE1
  8
DATA
  6
CONTINUOUS
 62
     7
 10
-116.64129757352779
 20
-400.6061113335283
 30
0.0
  0
VERTEX
  5
AE2
  8
DATA
  6
CONTINUOUS
 62
     7
 10
-117.3412975735278
 20
-399.39367576823008
 30
0.0
  0
VERTEX
  5
AE3
  8
DATA
  6
CONTINUOUS
 62
     7
 10
-118.7412975735278
 20
-399.39367576823008
 30
0.0
  0
VERTEX
  5
AE4
  8
DATA
  6
CONTINUOUS
 62
     7
 10
-119.44129757352781
 20
-400.6061113335283
 30
0.0
  0
VERTEX
  5
AE5
  8
DATA
  6
CONTINUOUS
 62
     7
 10
-118.7412975735278
 20
-401.81854689882653
 30
0.0
  0
VERTEX
  5
AE6
  8
DATA
  6
CONTINUOUS
 62
     7
 10
-117.3412975735278
 20
-401.81854689882653
 30
0.0
  0
SEQEND
  5
AE7
  8
DATA
  6
CONTINUOUS
 62
     7
  0
CIRCLE
  5
FF
  8
DATA
  6
CONTINUOUS
 62
     7
 10
-329.83073940456848
 20
-406.08183907243853
 30
0.0
 40
2.8000000000000109
  0
POLYLINE
  5
100
  8
DATA
  6
CONTINUOUS
 62
     7
 66
     1
 10
0.0
 20
0.0
 30
0.0
 70
     1
  0
VERTEX
  5
AE8
  8
DATA
  6
CONTINUOUS
 62
     7
 10
-328.4307394045685
 20
-406.08183907243853
 30
0.0
  0
VERTEX
  5
AE9
  8
DATA
  6
CONTINUOUS
 62
     7
 10
-329.13073940456837
 20
-404.86940350714031
 30
0.0
  0
VERTEX
  5
AEA
  8
DATA
  6
CONTINUOUS
 62
     7
 10
-330.53073940456841
 20
-404.86940350714031
 30
0.0
  0
VERTEX
  5
AEB
  8
DATA
  6
CONTINUOUS
 62
     7
 10
-331.23073940456851
 20
-406.08183907243853
 30
0.0
  0
VERTEX
  5
AEC
  8
DATA
  6
CONTINUOUS
 62
     7
 10
-330.53073940456841
 20
-407.29427463773692
 30
0.0
  0
VERTEX
  5
AED
  8
DATA
  6
CONTINUOUS
 62
     7
 10
-329.13073940456837
 20
-407.29427463773692
 30
0.0
  0
SEQEND
  5
AEE
  8
DATA
  6
CONTINUOUS
 62
     7
  0
CIRCLE
  5
108
  8
DATA
  6
CONTINUOUS
 62
     7
 10
93.748144257513701
 20
-406.08183907243853
 30
0.0
 40
2.8000000000000109
  0
POLYLINE
  5
109
  8
DATA
  6
CONTINUOUS
 62
     7
 66
     1
 10
0.0
 20
0.0
 30
0.0
 70
     1
  0
VERTEX
  5
AEF
  8
DATA
  6
CONTINUOUS
 62
     7
 10
92.348144257513724
 20
-406.08183907243853
 30
0.0
  0
VERTEX
  5
AF0
  8
DATA
  6
CONTINUOUS
 62
     7
 10
93.048144257513655
 20
-404.86940350714031
 30
0.0
  0
VERTEX
  5
AF1
  8
DATA
  6
CONTINUOUS
 62
     7
 10
94.44814425751369
 20
-404.86940350714031
 30
0.0
  0
VERTEX
  5
AF2
  8
DATA
  6
CONTINUOUS
 62
     7
 10
95.148144257513692
 20
-406.08183907243853
 30
0.0
  0
VERTEX
  5
AF3
  8
DATA
  6
CONTINUOUS
 62
     7
 10
94.448144257513718
 20
-407.29427463773692
 30
0.0
  0
VERTEX
  5
AF4
  8
DATA
  6
CONTINUOUS
 62
     7
 10
93.048144257513655
 20
-407.29427463773692
 30
0.0
  0
SEQEND
  5
AF5
  8
DATA
  6
CONTINUOUS
 62
     7
  0
CIRCLE
  5
111
  8
DATA
  6
CONTINUOUS
 62
     7
 10
93.748144257513701
 20
-429.51617297496171
 30
0.0
 40
2.8000000000000109
  0
POLYLINE
  5
112
  8
DATA
  6
CONTINUOUS
 62
     7
 66
     1
 10
0.0
 20
0.0
 30
0.0
 70
     1
  0
VERTEX
  5
AF6
  8
DATA
  6
CONTINUOUS
 62
     7
 10
92.348144257513724
 20
-429.51617297496171
 30
0.0
  0
VERTEX
  5
AF7
  8
DATA
  6
CONTINUOUS
 62
     7
 10
93.048144257513655
 20
-430.7286085402601
 30
0.0
  0
VERTEX
  5
AF8
  8
DATA
  6
CONTINUOUS
 62
     7
 10
94.44814425751369
 20
-430.7286085402601
 30
0.0
  0
VERTEX
  5
AF9
  8
DATA
  6
CONTINUOUS
 62
     7
 10
95.148144257513692
 20
-429.51617297496171
 30
0.0
  0
VERTEX
  5
AFA
  8
DATA
  6
CONTINUOUS
 62
     7
 10
94.448144257513718
 20
-428.30373740966371
 30
0.0
  0
VERTEX
  5
AFB
  8
DATA
  6
CONTINUOUS
 62
     7
 10
93.048144257513655
 20
-428.30373740966371
 30
0.0
  0
SEQEND
  5
AFC
  8
DATA
  6
CONTINUOUS
 62
     7
  0
POLYLINE
  5
11A
  8
DATA
  6
CONTINUOUS
 62
     7
 66
     1
 10
0.0
 20
0.0
 30
0.0
 70
     1
  0
VERTEX
  5
AFD
  8
DATA
  6
CONTINUOUS
 62
     7
 10
99.836806572626813
 20
-276.3558559447884
 30
0.0
  0
VERTEX
  5
AFE
  8
DATA
  6
CONTINUOUS
 62
     7
 10
99.836806572626813
 20
-130.3463881873717
 30
0.0
  0
VERTEX
  5
AFF
  8
DATA
  6
CONTINUOUS
 62
     7
 10
-338.16319342737222
 20
-130.3463881873717
 30
0.0
  0
VERTEX
  5
B00
  8
DATA
  6
CONTINUOUS
 62
     7
 10
-338.16319342737222
 20
-276.3558559447884
 30
0.0
  0
SEQEND
  5
B01
  8
DATA
  6
CONTINUOUS
 62
     7
  0
POLYLINE
  5
120
  8
DATA
  6
CONTINUOUS
 62
     7
 66
     1
 10
0.0
 20
0.0
 30
0.0
 70
     1
  0
VERTEX
  5
B02
  8
DATA
  6
CONTINUOUS
 62
     7
 10
-329.16319342737222
 20
-276.35638818737112
 30
0.0
  0
VERTEX
  5
B03
  8
DATA
  6
CONTINUOUS
 62
     7
 10
90.836806572626799
 20
-276.35638818737112
 30
0.0
  0
VERTEX
  5
B04
  8
DATA
  6
CONTINUOUS
 62
     7
 10
90.836806572626799
 20
-276.84638818737108
 30
0.0
  0
VERTEX
  5
B05
  8
DATA
  6
CONTINUOUS
 62
     7
 10
-329.16319342737222
 20
-276.84638818737108
 30
0.0
  0
SEQEND
  5
B06
  8
DATA
  6
CONTINUOUS
 62
     7
  0
LINE
  5
126
  8
DATA
  6
CONTINUOUS
 62
     7
 10
-338.16319342737222
 20
-276.3558559447884
 30
0.0
 11
-338.16319342737222
 21
-276.84638818737108
 31
0.0
  0
LINE
  5
127
  8
DATA
  6
CONTINUOUS
 62
     7
 10
99.836806572626813
 20
-276.3558559447884
 30
0.0
 11
99.836806572626912
 21
-276.84638818737108
 31
0.0
  0
ARC
  5
128
  8
DATA
  6
CONTINUOUS
 62
     7
 10
-335.6247318889105
 20
-259.84638818737119
 30
0.0
 40
4.8384615384617176
 50
136.99713135190601
 51
223.00286864809399
  0
LINE
  5
129
  8
DATA
  6
CONTINUOUS
 62
     7
 10
-339.16319342737222
 20
-256.54638818737112
 30
0.0
 11
-338.16319342737222
 21
-256.54638818737112
 31
0.0
  0
LINE
  5
12A
  8
DATA
  6
CONTINUOUS
 62
     7
 10
-339.16319342737222
 20
-263.14638818737109
 30
0.0
 11
-338.16319342737222
 21
-263.14638818737109
 31
0.0
  0
ARC
  5
12B
  8
DATA
  6
CONTINUOUS
 62
     7
 10
-335.6247318889105
 20
-147.8463881873717
 30
0.0
 40
4.8384615384617176
 50
136.99713135190601
 51
223.00286864809399
  0
LINE
  5
12C
  8
DATA
  6
CONTINUOUS
 62
     7
 10
-339.16319342737222
 20
-144.54638818737169
 30
0.0
 11
-338.16319342737222
 21
-144.54638818737169
 31
0.0
  0
LINE
  5
12D
  8
DATA
  6
CONTINUOUS
 62
     7
 10
-339.16319342737222
 20
-151.14638818737171
 30
0.0
 11
-338.16319342737222
 21
-151.14638818737171
 31
0.0
  0
ARC
  5
12E
  8
DATA
  6
CONTINUOUS
 62
     7
 10
97.298345034165052
 20
-259.84638818737119
 30
0.0
 40
4.8384615384617176
 50
316.99713135190598
 51
43.002868648094008
  0
LINE
  5
12F
  8
DATA
  6
CONTINUOUS
 62
     7
 10
100.8368065726268
 20
-256.54638818737112
 30
0.0
 11
99.836806572626813
 21
-256.54638818737112
 31
0.0
  0
LINE
  5
130
  8
DATA
  6
CONTINUOUS
 62
     7
 10
100.8368065726268
 20
-263.14638818737109
 30
0.0
 11
99.836806572626813
 21
-263.14638818737109
 31
0.0
  0
ARC
  5
131
  8
DATA
  6
CONTINUOUS
 62
     7
 10
97.298345034165052
 20
-147.8463881873717
 30
0.0
 40
4.8384615384617176
 50
316.99713135190598
 51
43.002868648094008
  0
LINE
  5
132
  8
DATA
  6
CONTINUOUS
 62
     7
 10
100.8368065726268
 20
-144.54638818737169
 30
0.0
 11
99.836806572626813
 21
-144.54638818737169
 31
0.0
  0
LINE
  5
133
  8
DATA
  6
CONTINUOUS
 62
     7
 10
100.8368065726268
 20
-151.14638818737171
 30
0.0
 11
99.836806572626813
 21
-151.14638818737171
 31
0.0
  0
LINE
  5
134
  8
DATA
  6
CONTINUOUS
 62
     7
 10
-332.25263525841382
 20
-282.84638818737119
 30
0.0
 11
-329.65263525841368
 21
-282.84638818737119
 31
0.0
  0
LINE
  5
135
  8
DATA
  6
CONTINUOUS
 62
     7
 10
-333.75263525841382
 20
-281.34638818737108
 30
0.0
 11
-333.75263525841382
 21
-279.84638818737108
 31
0.0
  0
LINE
  5
136
  8
DATA
  6
CONTINUOUS
 62
     7
 10
-328.15263525841368
 20
-281.34638818737108
 30
0.0
 11
-328.15263525841368
 21
-279.84638818737108
 31
0.0
  0
ARC
  5
137
  8
DATA
  6
CONTINUOUS
 62
     7
 10
-332.25263525841382
 20
-281.34638818737108
 30
0.0
 40
1.5
 50
180.0
 51
270.0
  0
ARC
  5
138
  8
DATA
  6
CONTINUOUS
 62
     7
 10
-329.65263525841368
 20
-281.34638818737108
 30
0.0
 40
1.5
 50
270.0
 51
0.0
  0
LINE
  5
139
  8
DATA
  6
CONTINUOUS
 62
     7
 10
93.926248403668367
 20
-282.84638818737119
 30
0.0
 11
91.326248403668345
 21
-282.84638818737119
 31
0.0
  0
LINE
  5
13A
  8
DATA
  6
CONTINUOUS
 62
     7
 10
95.426248403668367
 20
-281.34638818737108
 30
0.0
 11
95.426248403668367
 21
-279.84638818737108
 31
0.0
  0
LINE
  5
13B
  8
DATA
  6
CONTINUOUS
 62
     7
 10
89.826248403668345
 20
-281.34638818737108
 30
0.0
 11
89.826248403668345
 21
-279.84638818737108
 31
0.0
  0
ARC
  5
13C
  8
DATA
  6
CONTINUOUS
 62
     7
 10
93.926248403668367
 20
-281.34638818737108
 30
0.0
 40
1.5
 50
270.0
 51
0.0
  0
ARC
  5
13D
  8
DATA
  6
CONTINUOUS
 62
     7
 10
91.326248403668345
 20
-281.34638818737108
 30
0.0
 40
1.5
 50
180.0
 51
270.0
  0
POLYLINE
  5
13E
  8
DATA
  6
CONTINUOUS
 62
     7
 66
     1
 10
0.0
 20
0.0
 30
0.0
 70
     1
  0
VERTEX
  5
B07
  8
DATA
  6
CONTINUOUS
 62
     7
 10
60.336806572626813
 20
-128.8463881873717
 30
0.0
  0
VERTEX
  5
B08
  8
DATA
  6
CONTINUOUS
 62
     7
 10
90.336806572626813
 20
-128.8463881873717
 30
0.0
  0
VERTEX
  5
B09
  8
DATA
  6
CONTINUOUS
 62
     7
 10
90.336806572626813
 20
-130.3463881873717
 30
0.0
  0
VERTEX
  5
B0A
  8
DATA
  6
CONTINUOUS
 62
     7
 10
60.336806572626813
 20
-130.3463881873717
 30
0.0
  0
SEQEND
  5
B0B
  8
DATA
  6
CONTINUOUS
 62
     7
  0
ARC
  5
144
  8
DATA
  6
CONTINUOUS
 62
     7
 10
116.7988196181646
 20
6.3939143277224701
 30
0.0
 40
3.1999999999999962
 50
270.0
 51
90.0
  0
ARC
  5
145
  8
DATA
  6
CONTINUOUS
 62
     7
 10
112.19881961816471
 20
6.3939143277224701
 30
0.0
 40
3.1999999999999811
 50
90.0
 51
270.0
  0
LINE
  5
146
  8
DATA
  6
CONTINUOUS
 62
     7
 10
116.7988196181646
 20
3.193914327722474
 30
0.0
 11
112.19881961816471
 21
3.193914327722474
 31
0.0
  0
LINE
  5
147
  8
DATA
  6
CONTINUOUS
 62
     7
 10
116.7988196181646
 20
9.5939143277224517
 30
0.0
 11
112.19881961816471
 21
9.5939143277224517
 31
0.0
  0
ARC
  5
148
  8
DATA
  6
CONTINUOUS
 62
     7
 10
-348.20118038183449
 20
6.3939143277224701
 30
0.0
 40
3.1999999999999962
 50
270.0
 51
90.0
  0
ARC
  5
149
  8
DATA
  6
CONTINUOUS
 62
     7
 10
-352.80118038183451
 20
6.3939143277224701
 30
0.0
 40
3.1999999999999811
 50
90.0
 51
270.0
  0
LINE
  5
14A
  8
DATA
  6
CONTINUOUS
 62
     7
 10
-348.20118038183449
 20
3.193914327722474
 30
0.0
 11
-352.80118038183451
 21
3.193914327722474
 31
0.0
  0
LINE
  5
14B
  8
DATA
  6
CONTINUOUS
 62
     7
 10
-348.20118038183449
 20
9.5939143277224517
 30
0.0
 11
-352.80118038183451
 21
9.5939143277224517
 31
0.0
  0
ARC
  5
14C
  8
DATA
  6
CONTINUOUS
 62
     7
 10
116.7988196181646
 20
37.993914327722493
 30
0.0
 40
3.1999999999999882
 50
270.0
 51
90.0
  0
ARC
  5
14D
  8
DATA
  6
CONTINUOUS
 62
     7
 10
112.19881961816471
 20
37.993914327722493
 30
0.0
 40
3.1999999999999882
 50
90.0
 51
270.0
  0
LINE
  5
14E
  8
DATA
  6
CONTINUOUS
 62
     7
 10
116.7988196181646
 20
41.193914327722467
 30
0.0
 11
112.19881961816471
 21
41.193914327722467
 31
0.0
  0
LINE
  5
14F
  8
DATA
  6
CONTINUOUS
 62
     7
 10
116.7988196181646
 20
34.793914327722497
 30
0.0
 11
112.19881961816471
 21
34.793914327722497
 31
0.0
  0
ARC
  5
150
  8
DATA
  6
CONTINUOUS
 62
     7
 10
-348.20118038183449
 20
37.993914327722493
 30
0.0
 40
3.1999999999999882
 50
270.0
 51
90.0
  0
ARC
  5
151
  8
DATA
  6
CONTINUOUS
 62
     7
 10
-352.80118038183451
 20
37.993914327722493
 30
0.0
 40
3.1999999999999882
 50
90.0
 51
270.0
  0
LINE
  5
152
  8
DATA
  6
CONTINUOUS
 62
     7
 10
-348.20118038183449
 20
41.193914327722467
 30
0.0
 11
-352.80118038183451
 21
41.193914327722467
 31
0.0
  0
LINE
  5
153
  8
DATA
  6
CONTINUOUS
 62
     7
 10
-348.20118038183449
 20
34.793914327722497
 30
0.0
 11
-352.80118038183451
 21
34.793914327722497
 31
0.0
  0
LINE
  5
154
  8
DATA
  6
CONTINUOUS
 62
     7
 10
100.9988196181647
 20
44.39391432772247
 30
0.0
 11
100.9988196181647
 21
-0.0060856722775
 31
0.0
  0
LINE
  5
155
  8
DATA
  6
CONTINUOUS
 62
     7
 10
-337.0011803818345
 20
44.39391432772247
 30
0.0
 11
-337.0011803818345
 21
-0.0060856722775
 31
0.0
  0
LINE
  5
156
  8
DATA
  6
CONTINUOUS
 62
     7
 10
95.698819618164677
 20
5.2939143277224971
 30
0.0
 11
-331.70118038183449
 21
5.2939143277224971
 31
0.0
  0
LINE
  5
157
  8
DATA
  6
CONTINUOUS
 62
     7
 10
-331.70118038183449
 20
39.993914327722493
 30
0.0
 11
-331.70118038183449
 21
5.2939143277224971
 31
0.0
  0
LINE
  5
158
  8
DATA
  6
CONTINUOUS
 62
     7
 10
95.698819618164677
 20
39.993914327722493
 30
0.0
 11
95.698819618164677
 21
5.2939143277224971
 31
0.0
  0
LINE
  5
159
  8
DATA
  6
CONTINUOUS
 62
     7
 10
95.698819618164677
 20
5.2939143277224971
 30
0.0
 11
100.9988196181647
 21
-0.0060856722775
 31
0.0
  0
LINE
  5
15A
  8
DATA
  6
CONTINUOUS
 62
     7
 10
-331.70118038183449
 20
5.2939143277224971
 30
0.0
 11
-337.0011803818345
 21
-0.0060856722775
 31
0.0
  0
LINE
  5
15B
  8
DATA
  6
CONTINUOUS
 62
     7
 10
88.480119356301714
 20
33.351121808347081
 30
0.0
 11
88.420451011082207
 21
33.351121808347081
 31
0.0
  0
POLYLINE
  5
15C
  8
DATA
  6
CONTINUOUS
 62
     7
 66
     1
 10
0.0
 20
0.0
 30
0.0
 70
   128
  0
VERTEX
  5
B0C
  8
DATA
  6
CONTINUOUS
 62
     7
 10
91.157428437622286
 20
30.74368464031118
 30
0.0
  0
VERTEX
  5
B0D
  8
DATA
  6
CONTINUOUS
 62
     7
 10
91.117445700247245
 20
31.075966581998181
 30
0.0
  0
VERTEX
  5
B0E
  8
DATA
  6
CONTINUOUS
 62
     7
 10
91.054998613160762
 20
31.383672873541691
 30
0.0
  0
VERTEX
  5
B0F
  8
DATA
  6
CONTINUOUS
 62
     7
 10
90.970087176362824
 20
31.666803514941741
 30
0.0
  0
VERTEX
  5
B10
  8
DATA
  6
CONTINUOUS
 62
     7
 10
90.862711389853445
 20
31.925358506198311
 30
0.0
  0
VERTEX
  5
B11
  8
DATA
  6
CONTINUOUS
 62
     7
 10
90.732871253632624
 20
32.159337847311392
 30
0.0
  0
VERTEX
  5
B12
  8
DATA
  6
CONTINUOUS
 62
     7
 10
90.580566767700347
 20
32.368741538281
 30
0.0
  0
VERTEX
  5
B13
  8
DATA
  6
CONTINUOUS
 62
     7
 10
90.405797932056601
 20
32.553569579107133
 30
0.0
  0
VERTEX
  5
B14
  8
DATA
  6
CONTINUOUS
 62
     7
 10
90.208564746701427
 20
32.71382196978977
 30
0.0
  0
VERTEX
  5
B15
  8
DATA
  6
CONTINUOUS
 62
     7
 10
90.208564746701427
 20
32.71382196978977
 30
0.0
  0
VERTEX
  5
B16
  8
DATA
  6
CONTINUOUS
 62
     7
 10
89.999150597291873
 20
32.853248774676793
 30
0.0
  0
VERTEX
  5
B17
  8
DATA
  6
CONTINUOUS
 62
     7
 10
89.787838869485086
 20
32.975600058115973
 30
0.0
  0
VERTEX
  5
B18
  8
DATA
  6
CONTINUOUS
 62
     7
 10
89.574629563280979
 20
33.080875820107352
 30
0.0
  0
VERTEX
  5
B19
  8
DATA
  6
CONTINUOUS
 62
     7
 10
89.359522678679696
 20
33.169076060650923
 30
0.0
  0
VERTEX
  5
B1A
  8
DATA
  6
CONTINUOUS
 62
     7
 10
89.142518215681093
 20
33.240200779746679
 30
0.0
  0
VERTEX
  5
B1B
  8
DATA
  6
CONTINUOUS
 62
     7
 10
88.923616174285243
 20
33.294249977394628
 30
0.0
  0
VERTEX
  5
B1C
  8
DATA
  6
CONTINUOUS
 62
     7
 10
88.702816554492088
 20
33.331223653594762
 30
0.0
  0
VERTEX
  5
B1D
  8
DATA
  6
CONTINUOUS
 62
     7
 10
88.480119356301714
 20
33.351121808347081
 30
0.0
  0
VERTEX
  5
B1E
  8
DATA
  6
CONTINUOUS
 62
     7
 10
88.480119356301714
 20
33.351121808347081
 30
0.0
  0
SEQEND
  5
B1F
  8
DATA
  6
CONTINUOUS
 62
     7
  0
LINE
  5
171
  8
DATA
  6
CONTINUOUS
 62
     7
 10
91.157428437622286
 20
30.685569358248749
 30
0.0
 11
91.157428437622286
 21
30.74368464031118
 31
0.0
  0
POLYLINE
  5
172
  8
DATA
  6
CONTINUOUS
 62
     7
 66
     1
 10
0.0
 20
0.0
 30
0.0
 70
   128
  0
VERTEX
  5
B20
  8
DATA
  6
CONTINUOUS
 62
     7
 10
91.157428437622286
 20
12.69494944477495
 30
0.0
  0
VERTEX
  5
B21
  8
DATA
  6
CONTINUOUS
 62
     7
 10
91.157428437622286
 20
12.781191376792449
 30
0.0
  0
VERTEX
  5
B22
  8
DATA
  6
CONTINUOUS
 62
     7
 10
91.157428437622286
 20
12.892251443638671
 30
0.0
  0
VERTEX
  5
B23
  8
DATA
  6
CONTINUOUS
 62
     7
 10
91.157428437622286
 20
13.02812964531361
 30
0.0
  0
VERTEX
  5
B24
  8
DATA
  6
CONTINUOUS
 62
     7
 10
91.157428437622286
 20
13.188825981817279
 30
0.0
  0
VERTEX
  5
B25
  8
DATA
  6
CONTINUOUS
 62
     7
 10
91.157428437622286
 20
13.374340453149671
 30
0.0
  0
VERTEX
  5
B26
  8
DATA
  6
CONTINUOUS
 62
     7
 10
91.157428437622286
 20
13.58467305931079
 30
0.0
  0
VERTEX
  5
B27
  8
DATA
  6
CONTINUOUS
 62
     7
 10
91.157428437622286
 20
13.819823800300631
 30
0.0
  0
VERTEX
  5
B28
  8
DATA
  6
CONTINUOUS
 62
     7
 10
91.157428437622286
 20
14.07979267611919
 30
0.0
  0
VERTEX
  5
B29
  8
DATA
  6
CONTINUOUS
 62
     7
 10
91.157428437622286
 20
14.07979267611919
 30
0.0
  0
VERTEX
  5
B2A
  8
DATA
  6
CONTINUOUS
 62
     7
 10
91.157428437622286
 20
14.353568184851859
 30
0.0
  0
VERTEX
  5
B2B
  8
DATA
  6
CONTINUOUS
 62
     7
 10
91.157428437622244
 20
14.63013882458403
 30
0.0
  0
VERTEX
  5
B2C
  8
DATA
  6
CONTINUOUS
 62
     7
 10
91.157428437622187
 20
14.90950459531569
 30
0.0
  0
VERTEX
  5
B2D
  8
DATA
  6
CONTINUOUS
 62
     7
 10
91.157428437622073
 20
15.191665497046859
 30
0.0
  0
VERTEX
  5
B2E
  8
DATA
  6
CONTINUOUS
 62
     7
 10
91.157428437621974
 20
15.476621529777519
 30
0.0
  0
VERTEX
  5
B2F
  8
DATA
  6
CONTINUOUS
 62
     7
 10
91.157428437621846
 20
15.764372693507671
 30
0.0
  0
VERTEX
  5
B30
  8
DATA
  6
CONTINUOUS
 62
     7
 10
91.157428437621675
 20
16.054918988237318
 30
0.0
  0
VERTEX
  5
B31
  8
DATA
  6
CONTINUOUS
 62
     7
 10
91.157428437621476
 20
16.348260413966461
 30
0.0
  0
VERTEX
  5
B32
  8
DATA
  6
CONTINUOUS
 62
     7
 10
91.157428437621476
 20
16.348260413966461
 30
0.0
  0
VERTEX
  5
B33
  8
DATA
  6
CONTINUOUS
 62
     7
 10
91.157428437621306
 20
16.64595100759276
 30
0.0
  0
VERTEX
  5
B34
  8
DATA
  6
CONTINUOUS
 62
     7
 10
91.157428437621206
 20
16.949544806013861
 30
0.0
  0
VERTEX
  5
B35
  8
DATA
  6
CONTINUOUS
 62
     7
 10
91.157428437621149
 20
17.259041809229771
 30
0.0
  0
VERTEX
  5
B36
  8
DATA
  6
CONTINUOUS
 62
     7
 10
91.157428437621107
 20
17.574442017240489
 30
0.0
  0
VERTEX
  5
B37
  8
DATA
  6
CONTINUOUS
 62
     7
 10
91.157428437621149
 20
17.895745430046009
 30
0.0
  0
VERTEX
  5
B38
  8
DATA
  6
CONTINUOUS
 62
     7
 10
91.157428437621206
 20
18.222952047646341
 30
0.0
  0
VERTEX
  5
B39
  8
DATA
  6
CONTINUOUS
 62
     7
 10
91.157428437621306
 20
18.556061870041479
 30
0.0
  0
VERTEX
  5
B3A
  8
DATA
  6
CONTINUOUS
 62
     7
 10
91.157428437621476
 20
18.89507489723141
 30
0.0
  0
VERTEX
  5
B3B
  8
DATA
  6
CONTINUOUS
 62
     7
 10
91.157428437621476
 20
18.89507489723141
 30
0.0
  0
VERTEX
  5
B3C
  8
DATA
  6
CONTINUOUS
 62
     7
 10
91.157428437621647
 20
19.238023038826501
 30
0.0
  0
VERTEX
  5
B3D
  8
DATA
  6
CONTINUOUS
 62
     7
 10
91.157428437621803
 20
19.582938204437049
 30
0.0
  0
VERTEX
  5
B3E
  8
DATA
  6
CONTINUOUS
 62
     7
 10
91.15742843762186
 20
19.929820394063078
 30
0.0
  0
VERTEX
  5
B3F
  8
DATA
  6
CONTINUOUS
 62
     7
 10
91.157428437621874
 20
20.2786696077046
 30
0.0
  0
VERTEX
  5
B40
  8
DATA
  6
CONTINUOUS
 62
     7
 10
91.15742843762186
 20
20.629485845361589
 30
0.0
  0
VERTEX
  5
B41
  8
DATA
  6
CONTINUOUS
 62
     7
 10
91.157428437621803
 20
20.98226910703405
 30
0.0
  0
VERTEX
  5
B42
  8
DATA
  6
CONTINUOUS
 62
     7
 10
91.157428437621647
 20
21.337019392721981
 30
0.0
  0
VERTEX
  5
B43
  8
DATA
  6
CONTINUOUS
 62
     7
 10
91.157428437621476
 20
21.69373670242539
 30
0.0
  0
VERTEX
  5
B44
  8
DATA
  6
CONTINUOUS
 62
     7
 10
91.157428437621476
 20
21.69373670242539
 30
0.0
  0
VERTEX
  5
B45
  8
DATA
  6
CONTINUOUS
 62
     7
 10
91.157428437621306
 20
22.050453936818428
 30
0.0
  0
VERTEX
  5
B46
  8
DATA
  6
CONTINUOUS
 62
     7
 10
91.157428437621206
 20
22.40520399657526
 30
0.0
  0
VERTEX
  5
B47
  8
DATA
  6
CONTINUOUS
 62
     7
 10
91.157428437621149
 20
22.757986881695881
 30
0.0
  0
VERTEX
  5
B48
  8
DATA
  6
CONTINUOUS
 62
     7
 10
91.157428437621107
 20
23.108802592180279
 30
0.0
  0
VERTEX
  5
B49
  8
DATA
  6
CONTINUOUS
 62
     7
 10
91.157428437621149
 20
23.45765112802847
 30
0.0
  0
VERTEX
  5
B4A
  8
DATA
  6
CONTINUOUS
 62
     7
 10
91.157428437621206
 20
23.804532489240451
 30
0.0
  0
VERTEX
  5
B4B
  8
DATA
  6
CONTINUOUS
 62
     7
 10
91.157428437621306
 20
24.149446675816211
 30
0.0
  0
VERTEX
  5
B4C
  8
DATA
  6
CONTINUOUS
 62
     7
 10
91.157428437621476
 20
24.492393687755769
 30
0.0
  0
VERTEX
  5
B4D
  8
DATA
  6
CONTINUOUS
 62
     7
 10
91.157428437621476
 20
24.492393687755769
 30
0.0
  0
VERTEX
  5
B4E
  8
DATA
  6
CONTINUOUS
 62
     7
 10
91.157428437621675
 20
24.831406315787799
 30
0.0
  0
VERTEX
  5
B4F
  8
DATA
  6
CONTINUOUS
 62
     7
 10
91.157428437621846
 20
25.16451735064102
 30
0.0
  0
VERTEX
  5
B50
  8
DATA
  6
CONTINUOUS
 62
     7
 10
91.157428437621974
 20
25.491726792315411
 30
0.0
  0
VERTEX
  5
B51
  8
DATA
  6
CONTINUOUS
 62
     7
 10
91.157428437622073
 20
25.81303464081099
 30
0.0
  0
VERTEX
  5
B52
  8
DATA
  6
CONTINUOUS
 62
     7
 10
91.157428437622187
 20
26.128440896127749
 30
0.0
  0
VERTEX
  5
B53
  8
DATA
  6
CONTINUOUS
 62
     7
 10
91.157428437622244
 20
26.437945558265689
 30
0.0
  0
VERTEX
  5
B54
  8
DATA
  6
CONTINUOUS
 62
     7
 10
91.157428437622286
 20
26.741548627224809
 30
0.0
  0
VERTEX
  5
B55
  8
DATA
  6
CONTINUOUS
 62
     7
 10
91.157428437622286
 20
27.039250103005109
 30
0.0
  0
VERTEX
  5
B56
  8
DATA
  6
CONTINUOUS
 62
     7
 10
91.157428437622286
 20
27.039250103005109
 30
0.0
  0
VERTEX
  5
B57
  8
DATA
  6
CONTINUOUS
 62
     7
 10
91.157428437622286
 20
27.332678729905719
 30
0.0
  0
VERTEX
  5
B58
  8
DATA
  6
CONTINUOUS
 62
     7
 10
91.157428437622286
 20
27.62346325222579
 30
0.0
  0
VERTEX
  5
B59
  8
DATA
  6
CONTINUOUS
 62
     7
 10
91.157428437622286
 20
27.911603669965292
 30
0.0
  0
VERTEX
  5
B5A
  8
DATA
  6
CONTINUOUS
 62
     7
 10
91.157428437622286
 20
28.19709998312425
 30
0.0
  0
VERTEX
  5
B5B
  8
DATA
  6
CONTINUOUS
 62
     7
 10
91.157428437622286
 20
28.479952191702669
 30
0.0
  0
VERTEX
  5
B5C
  8
DATA
  6
CONTINUOUS
 62
     7
 10
91.157428437622286
 20
28.760160295700519
 30
0.0
  0
VERTEX
  5
B5D
  8
DATA
  6
CONTINUOUS
 62
     7
 10
91.157428437622286
 20
29.037724295117819
 30
0.0
  0
VERTEX
  5
B5E
  8
DATA
  6
CONTINUOUS
 62
     7
 10
91.157428437622286
 20
29.31264418995459
 30
0.0
  0
VERTEX
  5
B5F
  8
DATA
  6
CONTINUOUS
 62
     7
 10
91.157428437622286
 20
29.31264418995459
 30
0.0
  0
VERTEX
  5
B60
  8
DATA
  6
CONTINUOUS
 62
     7
 10
91.157428437622286
 20
29.573494257937359
 30
0.0
  0
VERTEX
  5
B61
  8
DATA
  6
CONTINUOUS
 62
     7
 10
91.157428437622286
 20
29.80884877679269
 30
0.0
  0
VERTEX
  5
B62
  8
DATA
  6
CONTINUOUS
 62
     7
 10
91.157428437622286
 20
30.018707746520601
 30
0.0
  0
VERTEX
  5
B63
  8
DATA
  6
CONTINUOUS
 62
     7
 10
91.157428437622286
 20
30.203071167121092
 30
0.0
  0
VERTEX
  5
B64
  8
DATA
  6
CONTINUOUS
 62
     7
 10
91.157428437622286
 20
30.361939038594151
 30
0.0
  0
VERTEX
  5
B65
  8
DATA
  6
CONTINUOUS
 62
     7
 10
91.157428437622286
 20
30.49531136093977
 30
0.0
  0
VERTEX
  5
B66
  8
DATA
  6
CONTINUOUS
 62
     7
 10
91.157428437622286
 20
30.603188134157971
 30
0.0
  0
VERTEX
  5
B67
  8
DATA
  6
CONTINUOUS
 62
     7
 10
91.157428437622286
 20
30.685569358248749
 30
0.0
  0
VERTEX
  5
B68
  8
DATA
  6
CONTINUOUS
 62
     7
 10
91.157428437622286
 20
30.685569358248749
 30
0.0
  0
SEQEND
  5
B69
  8
DATA
  6
CONTINUOUS
 62
     7
  0
POLYLINE
  5
1BD
  8
DATA
  6
CONTINUOUS
 62
     7
 66
     1
 10
0.0
 20
0.0
 30
0.0
  0
VERTEX
  5
B6A
  8
DATA
  6
CONTINUOUS
 62
     7
 10
91.157428437622286
 20
12.66357415564338
 30
0.0
  0
VERTEX
  5
B6B
  8
DATA
  6
CONTINUOUS
 62
     7
 10
91.157428437622286
 20
12.69494944477495
 30
0.0
  0
VERTEX
  5
B6C
  8
DATA
  6
CONTINUOUS
 62
     7
 10
91.157428437622286
 20
12.69494944477495
 30
0.0
  0
SEQEND
  5
B6D
  8
DATA
  6
CONTINUOUS
 62
     7
  0
POLYLINE
  5
1C2
  8
DATA
  6
CONTINUOUS
 62
     7
 66
     1
 10
0.0
 20
0.0
 30
0.0
 70
   128
  0
VERTEX
  5
B6E
  8
DATA
  6
CONTINUOUS
 62
     7
 10
88.447907802395022
 20
10.029396994673711
 30
0.0
  0
VERTEX
  5
B6F
  8
DATA
  6
CONTINUOUS
 62
     7
 10
88.683235246964685
 20
10.043295931613359
 30
0.0
  0
VERTEX
  5
B70
  8
DATA
  6
CONTINUOUS
 62
     7
 10
88.899875513753429
 20
10.06512986026584
 30
0.0
  0
VERTEX
  5
B71
  8
DATA
  6
CONTINUOUS
 62
     7
 10
89.097828602761297
 20
10.09489878063116
 30
0.0
  0
VERTEX
  5
B72
  8
DATA
  6
CONTINUOUS
 62
     7
 10
89.277094513988246
 20
10.1326026927093
 30
0.0
  0
VERTEX
  5
B73
  8
DATA
  6
CONTINUOUS
 62
     7
 10
89.43767324743429
 20
10.17824159650028
 30
0.0
  0
VERTEX
  5
B74
  8
DATA
  6
CONTINUOUS
 62
     7
 10
89.579564803099444
 20
10.231815492004079
 30
0.0
  0
VERTEX
  5
B75
  8
DATA
  6
CONTINUOUS
 62
     7
 10
89.702769180983694
 20
10.29332437922071
 30
0.0
  0
VERTEX
  5
B76
  8
DATA
  6
CONTINUOUS
 62
     7
 10
89.807286381087053
 20
10.362768258150171
 30
0.0
  0
VERTEX
  5
B77
  8
DATA
  6
CONTINUOUS
 62
     7
 10
89.807286381087053
 20
10.362768258150171
 30
0.0
  0
VERTEX
  5
B78
  8
DATA
  6
CONTINUOUS
 62
     7
 10
89.903672808236223
 20
10.438056435055151
 30
0.0
  0
VERTEX
  5
B79
  8
DATA
  6
CONTINUOUS
 62
     7
 10
90.002484867257877
 20
10.51709821619832
 30
0.0
  0
VERTEX
  5
B7A
  8
DATA
  6
CONTINUOUS
 62
     7
 10
90.103722558152029
 20
10.59989360157968
 30
0.0
  0
VERTEX
  5
B7B
  8
DATA
  6
CONTINUOUS
 62
     7
 10
90.207385880918707
 20
10.68644259119924
 30
0.0
  0
VERTEX
  5
B7C
  8
DATA
  6
CONTINUOUS
 62
     7
 10
90.313474835557884
 20
10.776745185057001
 30
0.0
  0
VERTEX
  5
B7D
  8
DATA
  6
CONTINUOUS
 62
     7
 10
90.421989422069544
 20
10.87080138315295
 30
0.0
  0
VERTEX
  5
B7E
  8
DATA
  6
CONTINUOUS
 62
     7
 10
90.532929640453702
 20
10.9686111854871
 30
0.0
  0
VERTEX
  5
B7F
  8
DATA
  6
CONTINUOUS
 62
     7
 10
90.646295490710344
 20
11.070174592059439
 30
0.0
  0
VERTEX
  5
B80
  8
DATA
  6
CONTINUOUS
 62
     7
 10
90.646295490710344
 20
11.070174592059439
 30
0.0
  0
VERTEX
  5
B81
  8
DATA
  6
CONTINUOUS
 62
     7
 10
90.754538275924673
 20
11.18558164284544
 30
0.0
  0
VERTEX
  5
B82
  8
DATA
  6
CONTINUOUS
 62
     7
 10
90.85010929918171
 20
11.32492237782059
 30
0.0
  0
VERTEX
  5
B83
  8
DATA
  6
CONTINUOUS
 62
     7
 10
90.933008560481568
 20
11.48819679698487
 30
0.0
  0
VERTEX
  5
B84
  8
DATA
  6
CONTINUOUS
 62
     7
 10
91.003236059824147
 20
11.6754049003383
 30
0.0
  0
VERTEX
  5
B85
  8
DATA
  6
CONTINUOUS
 62
     7
 10
91.060791797209575
 20
11.886546687880861
 30
0.0
  0
VERTEX
  5
B86
  8
DATA
  6
CONTINUOUS
 62
     7
 10
91.105675772637696
 20
12.12162215961256
 30
0.0
  0
VERTEX
  5
B87
  8
DATA
  6
CONTINUOUS
 62
     7
 10
91.137887986108623
 20
12.3806313155334
 30
0.0
  0
VERTEX
  5
B88
  8
DATA
  6
CONTINUOUS
 62
     7
 10
91.157428437622286
 20
12.66357415564338
 30
0.0
  0
VERTEX
  5
B89
  8
DATA
  6
CONTINUOUS
 62
     7
 10
91.157428437622286
 20
12.66357415564338
 30
0.0
  0
SEQEND
  5
B8A
  8
DATA
  6
CONTINUOUS
 62
     7
  0
LINE
  5
1E0
  8
DATA
  6
CONTINUOUS
 62
     7
 10
88.420451011082207
 20
10.029396994673711
 30
0.0
 11
88.447907802395022
 21
10.029396994673711
 31
0.0
  0
POLYLINE
  5
1E1
  8
DATA
  6
CONTINUOUS
 62
     7
 66
     1
 10
0.0
 20
0.0
 30
0.0
 70
   128
  0
VERTEX
  5
B8B
  8
DATA
  6
CONTINUOUS
 62
     7
 10
63.106436297640698
 20
10.029396994673711
 30
0.0
  0
VERTEX
  5
B8C
  8
DATA
  6
CONTINUOUS
 62
     7
 10
63.227532071785632
 20
10.029396994673711
 30
0.0
  0
VERTEX
  5
B8D
  8
DATA
  6
CONTINUOUS
 62
     7
 10
63.38354703849425
 20
10.029396994673711
 30
0.0
  0
VERTEX
  5
B8E
  8
DATA
  6
CONTINUOUS
 62
     7
 10
63.574481197766602
 20
10.029396994673711
 30
0.0
  0
VERTEX
  5
B8F
  8
DATA
  6
CONTINUOUS
 62
     7
 10
63.80033454960261
 20
10.029396994673711
 30
0.0
  0
VERTEX
  5
B90
  8
DATA
  6
CONTINUOUS
 62
     7
 10
64.061107094002367
 20
10.029396994673711
 30
0.0
  0
VERTEX
  5
B91
  8
DATA
  6
CONTINUOUS
 62
     7
 10
64.356798830965801
 20
10.029396994673711
 30
0.0
  0
VERTEX
  5
B92
  8
DATA
  6
CONTINUOUS
 62
     7
 10
64.687409760492926
 20
10.029396994673711
 30
0.0
  0
VERTEX
  5
B93
  8
DATA
  6
CONTINUOUS
 62
     7
 10
65.052939882583757
 20
10.029396994673711
 30
0.0
  0
VERTEX
  5
B94
  8
DATA
  6
CONTINUOUS
 62
     7
 10
65.052939882583757
 20
10.029396994673711
 30
0.0
  0
VERTEX
  5
B95
  8
DATA
  6
CONTINUOUS
 62
     7
 10
65.437913617230237
 20
10.029396994673711
 30
0.0
  0
VERTEX
  5
B96
  8
DATA
  6
CONTINUOUS
 62
     7
 10
65.826855384424348
 20
10.029396994673711
 30
0.0
  0
VERTEX
  5
B97
  8
DATA
  6
CONTINUOUS
 62
     7
 10
66.219765184166036
 20
10.029396994673711
 30
0.0
  0
VERTEX
  5
B98
  8
DATA
  6
CONTINUOUS
 62
     7
 10
66.616643016455356
 20
10.029396994673711
 30
0.0
  0
VERTEX
  5
B99
  8
DATA
  6
CONTINUOUS
 62
     7
 10
67.01748888129228
 20
10.029396994673711
 30
0.0
  0
VERTEX
  5
B9A
  8
DATA
  6
CONTINUOUS
 62
     7
 10
67.422302778676851
 20
10.029396994673711
 30
0.0
  0
VERTEX
  5
B9B
  8
DATA
  6
CONTINUOUS
 62
     7
 10
67.831084708609012
 20
10.029396994673711
 30
0.0
  0
VERTEX
  5
B9C
  8
DATA
  6
CONTINUOUS
 62
     7
 10
68.243834671088791
 20
10.029396994673711
 30
0.0
  0
VERTEX
  5
B9D
  8
DATA
  6
CONTINUOUS
 62
     7
 10
68.243834671088791
 20
10.029396994673711
 30
0.0
  0
VERTEX
  5
B9E
  8
DATA
  6
CONTINUOUS
 62
     7
 10
68.66272068296135
 20
10.029396994673711
 30
0.0
  0
VERTEX
  5
B9F
  8
DATA
  6
CONTINUOUS
 62
     7
 10
69.08991076107182
 20
10.029396994673711
 30
0.0
  0
VERTEX
  5
BA0
  8
DATA
  6
CONTINUOUS
 62
     7
 10
69.525404905420231
 20
10.029396994673711
 30
0.0
  0
VERTEX
  5
BA1
  8
DATA
  6
CONTINUOUS
 62
     7
 10
69.969203116006568
 20
10.029396994673711
 30
0.0
  0
VERTEX
  5
BA2
  8
DATA
  6
CONTINUOUS
 62
     7
 10
70.421305392830817
 20
10.029396994673711
 30
0.0
  0
VERTEX
  5
BA3
  8
DATA
  6
CONTINUOUS
 62
     7
 10
70.881711735892978
 20
10.029396994673711
 30
0.0
  0
VERTEX
  5
BA4
  8
DATA
  6
CONTINUOUS
 62
     7
 10
71.350422145193107
 20
10.029396994673711
 30
0.0
  0
VERTEX
  5
BA5
  8
DATA
  6
CONTINUOUS
 62
     7
 10
71.827436620731135
 20
10.029396994673711
 30
0.0
  0
VERTEX
  5
BA6
  8
DATA
  6
CONTINUOUS
 62
     7
 10
71.827436620731135
 20
10.029396994673711
 30
0.0
  0
VERTEX
  5
BA7
  8
DATA
  6
CONTINUOUS
 62
     7
 10
72.309986814638108
 20
10.02939699467373
 30
0.0
  0
VERTEX
  5
BA8
  8
DATA
  6
CONTINUOUS
 62
     7
 10
72.795304379045021
 20
10.0293969946738
 30
0.0
  0
VERTEX
  5
BA9
  8
DATA
  6
CONTINUOUS
 62
     7
 10
73.283389313951901
 20
10.02939699467391
 30
0.0
  0
VERTEX
  5
BAA
  8
DATA
  6
CONTINUOUS
 62
     7
 10
73.774241619358733
 20
10.02939699467407
 30
0.0
  0
VERTEX
  5
BAB
  8
DATA
  6
CONTINUOUS
 62
     7
 10
74.267861295265504
 20
10.02939699467427
 30
0.0
  0
VERTEX
  5
BAC
  8
DATA
  6
CONTINUOUS
 62
     7
 10
74.764248341672229
 20
10.029396994674521
 30
0.0
  0
VERTEX
  5
BAD
  8
DATA
  6
CONTINUOUS
 62
     7
 10
75.26340275857892
 20
10.029396994674819
 30
0.0
  0
VERTEX
  5
BAE
  8
DATA
  6
CONTINUOUS
 62
     7
 10
75.76532454598555
 20
10.02939699467516
 30
0.0
  0
VERTEX
  5
BAF
  8
DATA
  6
CONTINUOUS
 62
     7
 10
75.76532454598555
 20
10.02939699467516
 30
0.0
  0
VERTEX
  5
BB0
  8
DATA
  6
CONTINUOUS
 62
     7
 10
76.267247271716457
 20
10.029396994675469
 30
0.0
  0
VERTEX
  5
BB1
  8
DATA
  6
CONTINUOUS
 62
     7
 10
76.766404503595908
 20
10.0293969946757
 30
0.0
  0
VERTEX
  5
BB2
  8
DATA
  6
CONTINUOUS
 62
     7
 10
77.262796241623931
 20
10.029396994675841
 30
0.0
  0
VERTEX
  5
BB3
  8
DATA
  6
CONTINUOUS
 62
     7
 10
77.756422485800542
 20
10.02939699467588
 30
0.0
  0
VERTEX
  5
BB4
  8
DATA
  6
CONTINUOUS
 62
     7
 10
78.247283236125739
 20
10.029396994675841
 30
0.0
  0
VERTEX
  5
BB5
  8
DATA
  6
CONTINUOUS
 62
     7
 10
78.735378492599452
 20
10.0293969946757
 30
0.0
  0
VERTEX
  5
BB6
  8
DATA
  6
CONTINUOUS
 62
     7
 10
79.22070825522178
 20
10.029396994675469
 30
0.0
  0
VERTEX
  5
BB7
  8
DATA
  6
CONTINUOUS
 62
     7
 10
79.703272523992652
 20
10.02939699467516
 30
0.0
  0
VERTEX
  5
BB8
  8
DATA
  6
CONTINUOUS
 62
     7
 10
79.703272523992652
 20
10.02939699467516
 30
0.0
  0
VERTEX
  5
BB9
  8
DATA
  6
CONTINUOUS
 62
     7
 10
80.180296980848794
 20
10.02939699467484
 30
0.0
  0
VERTEX
  5
BBA
  8
DATA
  6
CONTINUOUS
 62
     7
 10
80.64900730772672
 20
10.02939699467461
 30
0.0
  0
VERTEX
  5
BBB
  8
DATA
  6
CONTINUOUS
 62
     7
 10
81.109403504626513
 20
10.02939699467448
 30
0.0
  0
VERTEX
  5
BBC
  8
DATA
  6
CONTINUOUS
 62
     7
 10
81.56148557154809
 20
10.02939699467443
 30
0.0
  0
VERTEX
  5
BBD
  8
DATA
  6
CONTINUOUS
 62
     7
 10
82.005253508491535
 20
10.02939699467448
 30
0.0
  0
VERTEX
  5
BBE
  8
DATA
  6
CONTINUOUS
 62
     7
 10
82.440707315456834
 20
10.02939699467461
 30
0.0
  0
VERTEX
  5
BBF
  8
DATA
  6
CONTINUOUS
 62
     7
 10
82.867846992443987
 20
10.02939699467484
 30
0.0
  0
VERTEX
  5
BC0
  8
DATA
  6
CONTINUOUS
 62
     7
 10
83.286672539452937
 20
10.02939699467516
 30
0.0
  0
VERTEX
  5
BC1
  8
DATA
  6
CONTINUOUS
 62
     7
 10
83.286672539452937
 20
10.02939699467516
 30
0.0
  0
VERTEX
  5
BC2
  8
DATA
  6
CONTINUOUS
 62
     7
 10
83.699509559975795
 20
10.029396994675469
 30
0.0
  0
VERTEX
  5
BC3
  8
DATA
  6
CONTINUOUS
 62
     7
 10
84.10868365750477
 20
10.0293969946757
 30
0.0
  0
VERTEX
  5
BC4
  8
DATA
  6
CONTINUOUS
 62
     7
 10
84.514194832039792
 20
10.029396994675841
 30
0.0
  0
VERTEX
  5
BC5
  8
DATA
  6
CONTINUOUS
 62
     7
 10
84.916043083580817
 20
10.02939699467588
 30
0.0
  0
VERTEX
  5
BC6
  8
DATA
  6
CONTINUOUS
 62
     7
 10
85.314228412127946
 20
10.029396994675841
 30
0.0
  0
VERTEX
  5
BC7
  8
DATA
  6
CONTINUOUS
 62
     7
 10
85.708750817681164
 20
10.0293969946757
 30
0.0
  0
VERTEX
  5
BC8
  8
DATA
  6
CONTINUOUS
 62
     7
 10
86.0996103002404
 20
10.029396994675469
 30
0.0
  0
VERTEX
  5
BC9
  8
DATA
  6
CONTINUOUS
 62
     7
 10
86.486806859805696
 20
10.02939699467516
 30
0.0
  0
VERTEX
  5
BCA
  8
DATA
  6
CONTINUOUS
 62
     7
 10
86.486806859805696
 20
10.02939699467516
 30
0.0
  0
VERTEX
  5
BCB
  8
DATA
  6
CONTINUOUS
 62
     7
 10
86.854214510479181
 20
10.029396994674819
 30
0.0
  0
VERTEX
  5
BCC
  8
DATA
  6
CONTINUOUS
 62
     7
 10
87.185707266362996
 20
10.029396994674521
 30
0.0
  0
VERTEX
  5
BCD
  8
DATA
  6
CONTINUOUS
 62
     7
 10
87.481285127457085
 20
10.02939699467427
 30
0.0
  0
VERTEX
  5
BCE
  8
DATA
  6
CONTINUOUS
 62
     7
 10
87.740948093761489
 20
10.02939699467407
 30
0.0
  0
VERTEX
  5
BCF
  8
DATA
  6
CONTINUOUS
 62
     7
 10
87.964696165276209
 20
10.02939699467391
 30
0.0
  0
VERTEX
  5
BD0
  8
DATA
  6
CONTINUOUS
 62
     7
 10
88.152529342001245
 20
10.0293969946738
 30
0.0
  0
VERTEX
  5
BD1
  8
DATA
  6
CONTINUOUS
 62
     7
 10
88.304447623936596
 20
10.02939699467373
 30
0.0
  0
VERTEX
  5
BD2
  8
DATA
  6
CONTINUOUS
 62
     7
 10
88.420451011082207
 20
10.029396994673711
 30
0.0
  0
VERTEX
  5
BD3
  8
DATA
  6
CONTINUOUS
 62
     7
 10
88.420451011082207
 20
10.029396994673711
 30
0.0
  0
SEQEND
  5
BD4
  8
DATA
  6
CONTINUOUS
 62
     7
  0
POLYLINE
  5
22C
  8
DATA
  6
CONTINUOUS
 62
     7
 66
     1
 10
0.0
 20
0.0
 30
0.0
  0
VERTEX
  5
BD5
  8
DATA
  6
CONTINUOUS
 62
     7
 10
63.046771365746963
 20
10.029396994673711
 30
0.0
  0
VERTEX
  5
BD6
  8
DATA
  6
CONTINUOUS
 62
     7
 10
63.106436297640698
 20
10.029396994673711
 30
0.0
  0
VERTEX
  5
BD7
  8
DATA
  6
CONTINUOUS
 62
     7
 10
63.106436297640698
 20
10.029396994673711
 30
0.0
  0
SEQEND
  5
BD8
  8
DATA
  6
CONTINUOUS
 62
     7
  0
POLYLINE
  5
231
  8
DATA
  6
CONTINUOUS
 62
     7
 66
     1
 10
0.0
 20
0.0
 30
0.0
 70
   128
  0
VERTEX
  5
BD9
  8
DATA
  6
CONTINUOUS
 62
     7
 10
60.369372400184488
 20
12.636834162712519
 30
0.0
  0
VERTEX
  5
BDA
  8
DATA
  6
CONTINUOUS
 62
     7
 10
60.409363906068002
 20
12.30455222102484
 30
0.0
  0
VERTEX
  5
BDB
  8
DATA
  6
CONTINUOUS
 62
     7
 10
60.471820173296138
 20
11.996845929480729
 30
0.0
  0
VERTEX
  5
BDC
  8
DATA
  6
CONTINUOUS
 62
     7
 10
60.556741201868888
 20
11.71371528808019
 30
0.0
  0
VERTEX
  5
BDD
  8
DATA
  6
CONTINUOUS
 62
     7
 10
60.664126991786283
 20
11.45516029682322
 30
0.0
  0
VERTEX
  5
BDE
  8
DATA
  6
CONTINUOUS
 62
     7
 10
60.793977543048278
 20
11.221180955709819
 30
0.0
  0
VERTEX
  5
BDF
  8
DATA
  6
CONTINUOUS
 62
     7
 10
60.946292855654917
 20
11.01177726473998
 30
0.0
  0
VERTEX
  5
BE0
  8
DATA
  6
CONTINUOUS
 62
     7
 10
61.121072929606179
 20
10.82694922391372
 30
0.0
  0
VERTEX
  5
BE1
  8
DATA
  6
CONTINUOUS
 62
     7
 10
61.318317764902083
 20
10.66669683323102
 30
0.0
  0
VERTEX
  5
BE2
  8
DATA
  6
CONTINUOUS
 62
     7
 10
61.318317764902083
 20
10.66669683323102
 30
0.0
  0
VERTEX
  5
BE3
  8
DATA
  6
CONTINUOUS
 62
     7
 10
61.527742416387461
 20
10.52727002834402
 30
0.0
  0
VERTEX
  5
BE4
  8
DATA
  6
CONTINUOUS
 62
     7
 10
61.739061938907177
 20
10.404918744904821
 30
0.0
  0
VERTEX
  5
BE5
  8
DATA
  6
CONTINUOUS
 62
     7
 10
61.952276332461267
 20
10.29964298291344
 30
0.0
  0
VERTEX
  5
BE6
  8
DATA
  6
CONTINUOUS
 62
     7
 10
62.167385597049702
 20
10.21144274236986
 30
0.0
  0
VERTEX
  5
BE7
  8
DATA
  6
CONTINUOUS
 62
     7
 10
62.384389732672489
 20
10.14031802327411
 30
0.0
  0
VERTEX
  5
BE8
  8
DATA
  6
CONTINUOUS
 62
     7
 10
62.603288739329606
 20
10.08626882562616
 30
0.0
  0
VERTEX
  5
BE9
  8
DATA
  6
CONTINUOUS
 62
     7
 10
62.824082617021112
 20
10.04929514942603
 30
0.0
  0
VERTEX
  5
BEA
  8
DATA
  6
CONTINUOUS
 62
     7
 10
63.046771365746963
 20
10.029396994673711
 30
0.0
  0
VERTEX
  5
BEB
  8
DATA
  6
CONTINUOUS
 62
     7
 10
63.046771365746963
 20
10.029396994673711
 30
0.0
  0
SEQEND
  5
BEC
  8
DATA
  6
CONTINUOUS
 62
     7
  0
LINE
  5
246
  8
DATA
  6
CONTINUOUS
 62
     7
 10
60.369372400184488
 20
12.69494944477495
 30
0.0
 11
60.369372400184488
 21
12.636834162712519
 31
0.0
  0
POLYLINE
  5
247
  8
DATA
  6
CONTINUOUS
 62
     7
 66
     1
 10
0.0
 20
0.0
 30
0.0
 70
   128
  0
VERTEX
  5
BED
  8
DATA
  6
CONTINUOUS
 62
     7
 10
60.369372400184488
 20
30.685569358248749
 30
0.0
  0
VERTEX
  5
BEE
  8
DATA
  6
CONTINUOUS
 62
     7
 10
60.369372400184488
 20
30.599506832393999
 30
0.0
  0
VERTEX
  5
BEF
  8
DATA
  6
CONTINUOUS
 62
     7
 10
60.369372400184488
 20
30.488627305829901
 30
0.0
  0
VERTEX
  5
BF0
  8
DATA
  6
CONTINUOUS
 62
     7
 10
60.369372400184488
 20
30.352930778556448
 30
0.0
  0
VERTEX
  5
BF1
  8
DATA
  6
CONTINUOUS
 62
     7
 10
60.369372400184488
 20
30.192417250573669
 30
0.0
  0
VERTEX
  5
BF2
  8
DATA
  6
CONTINUOUS
 62
     7
 10
60.369372400184488
 20
30.007086721881532
 30
0.0
  0
VERTEX
  5
BF3
  8
DATA
  6
CONTINUOUS
 62
     7
 10
60.369372400184488
 20
29.79693919248005
 30
0.0
  0
VERTEX
  5
BF4
  8
DATA
  6
CONTINUOUS
 62
     7
 10
60.369372400184488
 20
29.56197466236922
 30
0.0
  0
VERTEX
  5
BF5
  8
DATA
  6
CONTINUOUS
 62
     7
 10
60.369372400184488
 20
29.302193131549039
 30
0.0
  0
VERTEX
  5
BF6
  8
DATA
  6
CONTINUOUS
 62
     7
 10
60.369372400184488
 20
29.302193131549039
 30
0.0
  0
VERTEX
  5
BF7
  8
DATA
  6
CONTINUOUS
 62
     7
 10
60.369372400184488
 20
29.028593063954091
 30
0.0
  0
VERTEX
  5
BF8
  8
DATA
  6
CONTINUOUS
 62
     7
 10
60.369372400184488
 20
28.752172923518948
 30
0.0
  0
VERTEX
  5
BF9
  8
DATA
  6
CONTINUOUS
 62
     7
 10
60.369372400184488
 20
28.472932710243612
 30
0.0
  0
VERTEX
  5
BFA
  8
DATA
  6
CONTINUOUS
 62
     7
 10
60.369372400184488
 20
28.190872424128091
 30
0.0
  0
VERTEX
  5
BFB
  8
DATA
  6
CONTINUOUS
 62
     7
 10
60.369372400184488
 20
27.90599206517237
 30
0.0
  0
VERTEX
  5
BFC
  8
DATA
  6
CONTINUOUS
 62
     7
 10
60.369372400184488
 20
27.618291633376469
 30
0.0
  0
VERTEX
  5
BFD
  8
DATA
  6
CONTINUOUS
 62
     7
 10
60.369372400184488
 20
27.327771128740359
 30
0.0
  0
VERTEX
  5
BFE
  8
DATA
  6
CONTINUOUS
 62
     7
 10
60.369372400184488
 20
27.034430551264069
 30
0.0
  0
VERTEX
  5
BFF
  8
DATA
  6
CONTINUOUS
 62
     7
 10
60.369372400184488
 20
27.034430551264069
 30
0.0
  0
VERTEX
  5
C00
  8
DATA
  6
CONTINUOUS
 62
     7
 10
60.369372400184488
 20
26.736729095687451
 30
0.0
  0
VERTEX
  5
C01
  8
DATA
  6
CONTINUOUS
 62
     7
 10
60.369372400184488
 20
26.433125956750391
 30
0.0
  0
VERTEX
  5
C02
  8
DATA
  6
CONTINUOUS
 62
     7
 10
60.369372400184488
 20
26.123621134452868
 30
0.0
  0
VERTEX
  5
C03
  8
DATA
  6
CONTINUOUS
 62
     7
 10
60.369372400184488
 20
25.808214628794889
 30
0.0
  0
VERTEX
  5
C04
  8
DATA
  6
CONTINUOUS
 62
     7
 10
60.369372400184488
 20
25.486906439776469
 30
0.0
  0
VERTEX
  5
C05
  8
DATA
  6
CONTINUOUS
 62
     7
 10
60.369372400184488
 20
25.159696567397589
 30
0.0
  0
VERTEX
  5
C06
  8
DATA
  6
CONTINUOUS
 62
     7
 10
60.369372400184488
 20
24.82658501165827
 30
0.0
  0
VERTEX
  5
C07
  8
DATA
  6
CONTINUOUS
 62
     7
 10
60.369372400184488
 20
24.487571772558479
 30
0.0
  0
VERTEX
  5
C08
  8
DATA
  6
CONTINUOUS
 62
     7
 10
60.369372400184488
 20
24.487571772558479
 30
0.0
  0
VERTEX
  5
C09
  8
DATA
  6
CONTINUOUS
 62
     7
 10
60.369372400184488
 20
24.144624309423111
 30
0.0
  0
VERTEX
  5
C0A
  8
DATA
  6
CONTINUOUS
 62
     7
 10
60.369372400184488
 20
23.799710081577
 30
0.0
  0
VERTEX
  5
C0B
  8
DATA
  6
CONTINUOUS
 62
     7
 10
60.369372400184488
 20
23.452829089020149
 30
0.0
  0
VERTEX
  5
C0C
  8
DATA
  6
CONTINUOUS
 62
     7
 10
60.369372400184488
 20
23.103981331752571
 30
0.0
  0
VERTEX
  5
C0D
  8
DATA
  6
CONTINUOUS
 62
     7
 10
60.369372400184488
 20
22.75316680977425
 30
0.0
  0
VERTEX
  5
C0E
  8
DATA
  6
CONTINUOUS
 62
     7
 10
60.369372400184488
 20
22.400385523085198
 30
0.0
  0
VERTEX
  5
C0F
  8
DATA
  6
CONTINUOUS
 62
     7
 10
60.369372400184488
 20
22.04563747168541
 30
0.0
  0
VERTEX
  5
C10
  8
DATA
  6
CONTINUOUS
 62
     7
 10
60.369372400184488
 20
21.688922655574881
 30
0.0
  0
VERTEX
  5
C11
  8
DATA
  6
CONTINUOUS
 62
     7
 10
60.369372400184488
 20
21.688922655574881
 30
0.0
  0
VERTEX
  5
C12
  8
DATA
  6
CONTINUOUS
 62
     7
 10
60.369372400184488
 20
21.332207172599158
 30
0.0
  0
VERTEX
  5
C13
  8
DATA
  6
CONTINUOUS
 62
     7
 10
60.369372400184488
 20
20.977457120603731
 30
0.0
  0
VERTEX
  5
C14
  8
DATA
  6
CONTINUOUS
 62
     7
 10
60.369372400184488
 20
20.62467249958863
 30
0.0
  0
VERTEX
  5
C15
  8
DATA
  6
CONTINUOUS
 62
     7
 10
60.369372400184488
 20
20.273853309553839
 30
0.0
  0
VERTEX
  5
C16
  8
DATA
  6
CONTINUOUS
 62
     7
 10
60.369372400184488
 20
19.924999550499351
 30
0.0
  0
VERTEX
  5
C17
  8
DATA
  6
CONTINUOUS
 62
     7
 10
60.369372400184488
 20
19.578111222425179
 30
0.0
  0
VERTEX
  5
C18
  8
DATA
  6
CONTINUOUS
 62
     7
 10
60.369372400184488
 20
19.23318832533133
 30
0.0
  0
VERTEX
  5
C19
  8
DATA
  6
CONTINUOUS
 62
     7
 10
60.369372400184488
 20
18.890230859217791
 30
0.0
  0
VERTEX
  5
C1A
  8
DATA
  6
CONTINUOUS
 62
     7
 10
60.369372400184488
 20
18.890230859217791
 30
0.0
  0
VERTEX
  5
C1B
  8
DATA
  6
CONTINUOUS
 62
     7
 10
60.369372400184488
 20
18.551210526414771
 30
0.0
  0
VERTEX
  5
C1C
  8
DATA
  6
CONTINUOUS
 62
     7
 10
60.369372400184488
 20
18.21809902925246
 30
0.0
  0
VERTEX
  5
C1D
  8
DATA
  6
CONTINUOUS
 62
     7
 10
60.369372400184488
 20
17.890896367730878
 30
0.0
  0
VERTEX
  5
C1E
  8
DATA
  6
CONTINUOUS
 62
     7
 10
60.369372400184488
 20
17.569602541850031
 30
0.0
  0
VERTEX
  5
C1F
  8
DATA
  6
CONTINUOUS
 62
     7
 10
60.369372400184488
 20
17.254217551609901
 30
0.0
  0
VERTEX
  5
C20
  8
DATA
  6
CONTINUOUS
 62
     7
 10
60.369372400184488
 20
16.94474139701051
 30
0.0
  0
VERTEX
  5
C21
  8
DATA
  6
CONTINUOUS
 62
     7
 10
60.369372400184488
 20
16.641174078051819
 30
0.0
  0
VERTEX
  5
C22
  8
DATA
  6
CONTINUOUS
 62
     7
 10
60.369372400184488
 20
16.343515594733859
 30
0.0
  0
VERTEX
  5
C23
  8
DATA
  6
CONTINUOUS
 62
     7
 10
60.369372400184488
 20
16.343515594733859
 30
0.0
  0
VERTEX
  5
C24
  8
DATA
  6
CONTINUOUS
 62
     7
 10
60.369372400184488
 20
16.050113145279841
 30
0.0
  0
VERTEX
  5
C25
  8
DATA
  6
CONTINUOUS
 62
     7
 10
60.369372400184488
 20
15.759313927912959
 30
0.0
  0
VERTEX
  5
C26
  8
DATA
  6
CONTINUOUS
 62
     7
 10
60.369372400184488
 20
15.47111794263321
 30
0.0
  0
VERTEX
  5
C27
  8
DATA
  6
CONTINUOUS
 62
     7
 10
60.369372400184488
 20
15.185525189440609
 30
0.0
  0
VERTEX
  5
C28
  8
DATA
  6
CONTINUOUS
 62
     7
 10
60.369372400184488
 20
14.902535668335149
 30
0.0
  0
VERTEX
  5
C29
  8
DATA
  6
CONTINUOUS
 62
     7
 10
60.369372400184488
 20
14.622149379316831
 30
0.0
  0
VERTEX
  5
C2A
  8
DATA
  6
CONTINUOUS
 62
     7
 10
60.369372400184488
 20
14.34436632238565
 30
0.0
  0
VERTEX
  5
C2B
  8
DATA
  6
CONTINUOUS
 62
     7
 10
60.369372400184488
 20
14.06918649754161
 30
0.0
  0
VERTEX
  5
C2C
  8
DATA
  6
CONTINUOUS
 62
     7
 10
60.369372400184488
 20
14.06918649754161
 30
0.0
  0
VERTEX
  5
C2D
  8
DATA
  6
CONTINUOUS
 62
     7
 10
60.369372400184488
 20
13.80807061089172
 30
0.0
  0
VERTEX
  5
C2E
  8
DATA
  6
CONTINUOUS
 62
     7
 10
60.369372400184488
 20
13.572479368542989
 30
0.0
  0
VERTEX
  5
C2F
  8
DATA
  6
CONTINUOUS
 62
     7
 10
60.369372400184488
 20
13.362412770495419
 30
0.0
  0
VERTEX
  5
C30
  8
DATA
  6
CONTINUOUS
 62
     7
 10
60.369372400184488
 20
13.17787081674901
 30
0.0
  0
VERTEX
  5
C31
  8
DATA
  6
CONTINUOUS
 62
     7
 10
60.369372400184488
 20
13.01885350730376
 30
0.0
  0
VERTEX
  5
C32
  8
DATA
  6
CONTINUOUS
 62
     7
 10
60.369372400184488
 20
12.88536084215967
 30
0.0
  0
VERTEX
  5
C33
  8
DATA
  6
CONTINUOUS
 62
     7
 10
60.369372400184488
 20
12.777392821316729
 30
0.0
  0
VERTEX
  5
C34
  8
DATA
  6
CONTINUOUS
 62
     7
 10
60.369372400184488
 20
12.69494944477495
 30
0.0
  0
VERTEX
  5
C35
  8
DATA
  6
CONTINUOUS
 62
     7
 10
60.369372400184488
 20
12.69494944477495
 30
0.0
  0
SEQEND
  5
C36
  8
DATA
  6
CONTINUOUS
 62
     7
  0
POLYLINE
  5
292
  8
DATA
  6
CONTINUOUS
 62
     7
 66
     1
 10
0.0
 20
0.0
 30
0.0
  0
VERTEX
  5
C37
  8
DATA
  6
CONTINUOUS
 62
     7
 10
60.369372400184488
 20
30.715968436249788
 30
0.0
  0
VERTEX
  5
C38
  8
DATA
  6
CONTINUOUS
 62
     7
 10
60.369372400184488
 20
30.685569358248749
 30
0.0
  0
VERTEX
  5
C39
  8
DATA
  6
CONTINUOUS
 62
     7
 10
60.369372400184488
 20
30.685569358248749
 30
0.0
  0
SEQEND
  5
C3A
  8
DATA
  6
CONTINUOUS
 62
     7
  0
POLYLINE
  5
297
  8
DATA
  6
CONTINUOUS
 62
     7
 66
     1
 10
0.0
 20
0.0
 30
0.0
 70
   128
  0
VERTEX
  5
C3B
  8
DATA
  6
CONTINUOUS
 62
     7
 10
63.07797940191972
 20
33.351121808347081
 30
0.0
  0
VERTEX
  5
C3C
  8
DATA
  6
CONTINUOUS
 62
     7
 10
62.833722926203521
 20
33.335933162639449
 30
0.0
  0
VERTEX
  5
C3D
  8
DATA
  6
CONTINUOUS
 62
     7
 10
62.604413472084467
 20
33.30853507011863
 30
0.0
  0
VERTEX
  5
C3E
  8
DATA
  6
CONTINUOUS
 62
     7
 10
62.3900510395626
 20
33.268927530784609
 30
0.0
  0
VERTEX
  5
C3F
  8
DATA
  6
CONTINUOUS
 62
     7
 10
62.190635628637878
 20
33.217110544637407
 30
0.0
  0
VERTEX
  5
C40
  8
DATA
  6
CONTINUOUS
 62
     7
 10
62.006167239310351
 20
33.153084111677018
 30
0.0
  0
VERTEX
  5
C41
  8
DATA
  6
CONTINUOUS
 62
     7
 10
61.836645871579982
 20
33.07684823190344
 30
0.0
  0
VERTEX
  5
C42
  8
DATA
  6
CONTINUOUS
 62
     7
 10
61.682071525446773
 20
32.988402905316683
 30
0.0
  0
VERTEX
  5
C43
  8
DATA
  6
CONTINUOUS
 62
     7
 10
61.542444200910722
 20
32.88774813191673
 30
0.0
  0
VERTEX
  5
C44
  8
DATA
  6
CONTINUOUS
 62
     7
 10
61.542444200910722
 20
32.88774813191673
 30
0.0
  0
VERTEX
  5
C45
  8
DATA
  6
CONTINUOUS
 62
     7
 10
61.413697629506672
 20
32.779981514526384
 30
0.0
  0
VERTEX
  5
C46
  8
DATA
  6
CONTINUOUS
 62
     7
 10
61.29176554276944
 20
32.670200655968429
 30
0.0
  0
VERTEX
  5
C47
  8
DATA
  6
CONTINUOUS
 62
     7
 10
61.17664794069902
 20
32.55840555624286
 30
0.0
  0
VERTEX
  5
C48
  8
DATA
  6
CONTINUOUS
 62
     7
 10
61.068344823295419
 20
32.444596215349691
 30
0.0
  0
VERTEX
  5
C49
  8
DATA
  6
CONTINUOUS
 62
     7
 10
60.966856190558651
 20
32.328772633288942
 30
0.0
  0
VERTEX
  5
C4A
  8
DATA
  6
CONTINUOUS
 62
     7
 10
60.87218204248866
 20
32.21093481006055
 30
0.0
  0
VERTEX
  5
C4B
  8
DATA
  6
CONTINUOUS
 62
     7
 10
60.784322379085523
 20
32.091082745664572
 30
0.0
  0
VERTEX
  5
C4C
  8
DATA
  6
CONTINUOUS
 62
     7
 10
60.703277200349191
 20
31.969216440101
 30
0.0
  0
VERTEX
  5
C4D
  8
DATA
  6
CONTINUOUS
 62
     7
 10
60.703277200349191
 20
31.969216440101
 30
0.0
  0
VERTEX
  5
C4E
  8
DATA
  6
CONTINUOUS
 62
     7
 10
60.63012674349406
 20
31.842120192161861
 30
0.0
  0
VERTEX
  5
C4F
  8
DATA
  6
CONTINUOUS
 62
     7
 10
60.56595124573451
 20
31.706578300639229
 30
0.0
  0
VERTEX
  5
C50
  8
DATA
  6
CONTINUOUS
 62
     7
 10
60.510750707070549
 20
31.562590765533081
 30
0.0
  0
VERTEX
  5
C51
  8
DATA
  6
CONTINUOUS
 62
     7
 10
60.464525127502171
 20
31.410157586843429
 30
0.0
  0
VERTEX
  5
C52
  8
DATA
  6
CONTINUOUS
 62
     7
 10
60.427274507029381
 20
31.249278764570271
 30
0.0
  0
VERTEX
  5
C53
  8
DATA
  6
CONTINUOUS
 62
     7
 10
60.398998845652152
 20
31.079954298713609
 30
0.0
  0
VERTEX
  5
C54
  8
DATA
  6
CONTINUOUS
 62
     7
 10
60.379698143370533
 20
30.902184189273449
 30
0.0
  0
VERTEX
  5
C55
  8
DATA
  6
CONTINUOUS
 62
     7
 10
60.369372400184488
 20
30.715968436249788
 30
0.0
  0
VERTEX
  5
C56
  8
DATA
  6
CONTINUOUS
 62
     7
 10
60.369372400184488
 20
30.715968436249788
 30
0.0
  0
SEQEND
  5
C57
  8
DATA
  6
CONTINUOUS
 62
     7
  0
LINE
  5
2B5
  8
DATA
  6
CONTINUOUS
 62
     7
 10
63.106436297640698
 20
33.351121808347081
 30
0.0
 11
63.07797940191972
 21
33.351121808347081
 31
0.0
  0
POLYLINE
  5
2B6
  8
DATA
  6
CONTINUOUS
 62
     7
 66
     1
 10
0.0
 20
0.0
 30
0.0
 70
   128
  0
VERTEX
  5
C58
  8
DATA
  6
CONTINUOUS
 62
     7
 10
88.420451011082207
 20
33.351121808347081
 30
0.0
  0
VERTEX
  5
C59
  8
DATA
  6
CONTINUOUS
 62
     7
 10
88.299355236936933
 20
33.351121808346427
 30
0.0
  0
VERTEX
  5
C5A
  8
DATA
  6
CONTINUOUS
 62
     7
 10
88.143340270228023
 20
33.351121808345908
 30
0.0
  0
VERTEX
  5
C5B
  8
DATA
  6
CONTINUOUS
 62
     7
 10
87.952406110955408
 20
33.351121808345532
 30
0.0
  0
VERTEX
  5
C5C
  8
DATA
  6
CONTINUOUS
 62
     7
 10
87.726552759119187
 20
33.351121808345269
 30
0.0
  0
VERTEX
  5
C5D
  8
DATA
  6
CONTINUOUS
 62
     7
 10
87.465780214719317
 20
33.351121808345162
 30
0.0
  0
VERTEX
  5
C5E
  8
DATA
  6
CONTINUOUS
 62
     7
 10
87.170088477755769
 20
33.351121808345177
 30
0.0
  0
VERTEX
  5
C5F
  8
DATA
  6
CONTINUOUS
 62
     7
 10
86.839477548228587
 20
33.35112180834534
 30
0.0
  0
VERTEX
  5
C60
  8
DATA
  6
CONTINUOUS
 62
     7
 10
86.473947426137727
 20
33.351121808345631
 30
0.0
  0
VERTEX
  5
C61
  8
DATA
  6
CONTINUOUS
 62
     7
 10
86.473947426137727
 20
33.351121808345631
 30
0.0
  0
VERTEX
  5
C62
  8
DATA
  6
CONTINUOUS
 62
     7
 10
86.088973691491262
 20
33.351121808345972
 30
0.0
  0
VERTEX
  5
C63
  8
DATA
  6
CONTINUOUS
 62
     7
 10
85.700031924297193
 20
33.351121808346257
 30
0.0
  0
VERTEX
  5
C64
  8
DATA
  6
CONTINUOUS
 62
     7
 10
85.307122124555534
 20
33.351121808346512
 30
0.0
  0
VERTEX
  5
C65
  8
DATA
  6
CONTINUOUS
 62
     7
 10
84.910244292266299
 20
33.351121808346718
 30
0.0
  0
VERTEX
  5
C66
  8
DATA
  6
CONTINUOUS
 62
     7
 10
84.509398427429446
 20
33.351121808346882
 30
0.0
  0
VERTEX
  5
C67
  8
DATA
  6
CONTINUOUS
 62
     7
 10
84.104584530045017
 20
33.351121808346988
 30
0.0
  0
VERTEX
  5
C68
  8
DATA
  6
CONTINUOUS
 62
     7
 10
83.695802600112984
 20
33.35112180834706
 30
0.0
  0
VERTEX
  5
C69
  8
DATA
  6
CONTINUOUS
 62
     7
 10
83.283052637633375
 20
33.351121808347081
 30
0.0
  0
VERTEX
  5
C6A
  8
DATA
  6
CONTINUOUS
 62
     7
 10
83.283052637633375
 20
33.351121808347081
 30
0.0
  0
VERTEX
  5
C6B
  8
DATA
  6
CONTINUOUS
 62
     7
 10
82.864166625760987
 20
33.35112180834706
 30
0.0
  0
VERTEX
  5
C6C
  8
DATA
  6
CONTINUOUS
 62
     7
 10
82.436976547650644
 20
33.351121808346988
 30
0.0
  0
VERTEX
  5
C6D
  8
DATA
  6
CONTINUOUS
 62
     7
 10
82.001482403302376
 20
33.351121808346882
 30
0.0
  0
VERTEX
  5
C6E
  8
DATA
  6
CONTINUOUS
 62
     7
 10
81.557684192716124
 20
33.351121808346718
 30
0.0
  0
VERTEX
  5
C6F
  8
DATA
  6
CONTINUOUS
 62
     7
 10
81.105581915891932
 20
33.351121808346512
 30
0.0
  0
VERTEX
  5
C70
  8
DATA
  6
CONTINUOUS
 62
     7
 10
80.645175572829814
 20
33.351121808346257
 30
0.0
  0
VERTEX
  5
C71
  8
DATA
  6
CONTINUOUS
 62
     7
 10
80.176465163529727
 20
33.351121808345972
 30
0.0
  0
VERTEX
  5
C72
  8
DATA
  6
CONTINUOUS
 62
     7
 10
79.699450687991686
 20
33.351121808345631
 30
0.0
  0
VERTEX
  5
C73
  8
DATA
  6
CONTINUOUS
 62
     7
 10
79.699450687991686
 20
33.351121808345631
 30
0.0
  0
VERTEX
  5
C74
  8
DATA
  6
CONTINUOUS
 62
     7
 10
79.216900494084726
 20
33.351121808345312
 30
0.0
  0
VERTEX
  5
C75
  8
DATA
  6
CONTINUOUS
 62
     7
 10
78.731582929677785
 20
33.351121808345091
 30
0.0
  0
VERTEX
  5
C76
  8
DATA
  6
CONTINUOUS
 62
     7
 10
78.243497994770848
 20
33.351121808344963
 30
0.0
  0
VERTEX
  5
C77
  8
DATA
  6
CONTINUOUS
 62
     7
 10
77.752645689363931
 20
33.351121808344907
 30
0.0
  0
VERTEX
  5
C78
  8
DATA
  6
CONTINUOUS
 62
     7
 10
77.25902601345706
 20
33.351121808344963
 30
0.0
  0
VERTEX
  5
C79
  8
DATA
  6
CONTINUOUS
 62
     7
 10
76.762638967050222
 20
33.351121808345091
 30
0.0
  0
VERTEX
  5
C7A
  8
DATA
  6
CONTINUOUS
 62
     7
 10
76.263484550143403
 20
33.351121808345312
 30
0.0
  0
VERTEX
  5
C7B
  8
DATA
  6
CONTINUOUS
 62
     7
 10
75.761562762736602
 20
33.351121808345631
 30
0.0
  0
VERTEX
  5
C7C
  8
DATA
  6
CONTINUOUS
 62
     7
 10
75.761562762736602
 20
33.351121808345631
 30
0.0
  0
VERTEX
  5
C7D
  8
DATA
  6
CONTINUOUS
 62
     7
 10
75.259640037005553
 20
33.351121808345972
 30
0.0
  0
VERTEX
  5
C7E
  8
DATA
  6
CONTINUOUS
 62
     7
 10
74.760482805125946
 20
33.351121808346257
 30
0.0
  0
VERTEX
  5
C7F
  8
DATA
  6
CONTINUOUS
 62
     7
 10
74.264091067097823
 20
33.351121808346512
 30
0.0
  0
VERTEX
  5
C80
  8
DATA
  6
CONTINUOUS
 62
     7
 10
73.770464822921099
 20
33.351121808346718
 30
0.0
  0
VERTEX
  5
C81
  8
DATA
  6
CONTINUOUS
 62
     7
 10
73.279604072595845
 20
33.351121808346882
 30
0.0
  0
VERTEX
  5
C82
  8
DATA
  6
CONTINUOUS
 62
     7
 10
72.791508816122032
 20
33.351121808346988
 30
0.0
  0
VERTEX
  5
C83
  8
DATA
  6
CONTINUOUS
 62
     7
 10
72.306179053499662
 20
33.35112180834706
 30
0.0
  0
VERTEX
  5
C84
  8
DATA
  6
CONTINUOUS
 62
     7
 10
71.823614784728761
 20
33.351121808347081
 30
0.0
  0
VERTEX
  5
C85
  8
DATA
  6
CONTINUOUS
 62
     7
 10
71.823614784728761
 20
33.351121808347081
 30
0.0
  0
VERTEX
  5
C86
  8
DATA
  6
CONTINUOUS
 62
     7
 10
71.346590327872661
 20
33.351121808347081
 30
0.0
  0
VERTEX
  5
C87
  8
DATA
  6
CONTINUOUS
 62
     7
 10
70.877880000994764
 20
33.351121808347081
 30
0.0
  0
VERTEX
  5
C88
  8
DATA
  6
CONTINUOUS
 62
     7
 10
70.417483804095042
 20
33.351121808347081
 30
0.0
  0
VERTEX
  5
C89
  8
DATA
  6
CONTINUOUS
 62
     7
 10
69.965401737173508
 20
33.351121808347081
 30
0.0
  0
VERTEX
  5
C8A
  8
DATA
  6
CONTINUOUS
 62
     7
 10
69.521633800230177
 20
33.351121808347081
 30
0.0
  0
VERTEX
  5
C8B
  8
DATA
  6
CONTINUOUS
 62
     7
 10
69.086179993265006
 20
33.351121808347081
 30
0.0
  0
VERTEX
  5
C8C
  8
DATA
  6
CONTINUOUS
 62
     7
 10
68.659040316278023
 20
33.351121808347081
 30
0.0
  0
VERTEX
  5
C8D
  8
DATA
  6
CONTINUOUS
 62
     7
 10
68.240214769269244
 20
33.351121808347081
 30
0.0
  0
VERTEX
  5
C8E
  8
DATA
  6
CONTINUOUS
 62
     7
 10
68.240214769269244
 20
33.351121808347081
 30
0.0
  0
VERTEX
  5
C8F
  8
DATA
  6
CONTINUOUS
 62
     7
 10
67.8273777487465
 20
33.35112180834706
 30
0.0
  0
VERTEX
  5
C90
  8
DATA
  6
CONTINUOUS
 62
     7
 10
67.418203651217652
 20
33.351121808346988
 30
0.0
  0
VERTEX
  5
C91
  8
DATA
  6
CONTINUOUS
 62
     7
 10
67.012692476682716
 20
33.351121808346882
 30
0.0
  0
VERTEX
  5
C92
  8
DATA
  6
CONTINUOUS
 62
     7
 10
66.610844225141676
 20
33.351121808346718
 30
0.0
  0
VERTEX
  5
C93
  8
DATA
  6
CONTINUOUS
 62
     7
 10
66.212658896594533
 20
33.351121808346512
 30
0.0
  0
VERTEX
  5
C94
  8
DATA
  6
CONTINUOUS
 62
     7
 10
65.818136491041287
 20
33.351121808346257
 30
0.0
  0
VERTEX
  5
C95
  8
DATA
  6
CONTINUOUS
 62
     7
 10
65.427277008481951
 20
33.351121808345972
 30
0.0
  0
VERTEX
  5
C96
  8
DATA
  6
CONTINUOUS
 62
     7
 10
65.040080448916513
 20
33.351121808345631
 30
0.0
  0
VERTEX
  5
C97
  8
DATA
  6
CONTINUOUS
 62
     7
 10
65.040080448916513
 20
33.351121808345631
 30
0.0
  0
VERTEX
  5
C98
  8
DATA
  6
CONTINUOUS
 62
     7
 10
64.6726727982429
 20
33.35112180834534
 30
0.0
  0
VERTEX
  5
C99
  8
DATA
  6
CONTINUOUS
 62
     7
 10
64.341180042359014
 20
33.351121808345177
 30
0.0
  0
VERTEX
  5
C9A
  8
DATA
  6
CONTINUOUS
 62
     7
 10
64.045602181264911
 20
33.351121808345162
 30
0.0
  0
VERTEX
  5
C9B
  8
DATA
  6
CONTINUOUS
 62
     7
 10
63.785939214960543
 20
33.351121808345269
 30
0.0
  0
VERTEX
  5
C9C
  8
DATA
  6
CONTINUOUS
 62
     7
 10
63.562191143445951
 20
33.351121808345532
 30
0.0
  0
VERTEX
  5
C9D
  8
DATA
  6
CONTINUOUS
 62
     7
 10
63.374357966721099
 20
33.351121808345908
 30
0.0
  0
VERTEX
  5
C9E
  8
DATA
  6
CONTINUOUS
 62
     7
 10
63.222439684786018
 20
33.351121808346427
 30
0.0
  0
VERTEX
  5
C9F
  8
DATA
  6
CONTINUOUS
 62
     7
 10
63.106436297640698
 20
33.351121808347081
 30
0.0
  0
VERTEX
  5
CA0
  8
DATA
  6
CONTINUOUS
 62
     7
 10
63.106436297640698
 20
33.351121808347081
 30
0.0
  0
SEQEND
  5
CA1
  8
DATA
  6
CONTINUOUS
 62
     7
  0
LINE
  5
301
  8
DATA
  6
CONTINUOUS
 62
     7
 10
87.446338448603399
 20
24.608908398524719
 30
0.0
 11
87.437933572475316
 21
24.617555490103669
 31
0.0
  0
POLYLINE
  5
302
  8
DATA
  6
CONTINUOUS
 62
     7
 66
     1
 10
0.0
 20
0.0
 30
0.0
 70
   128
  0
VERTEX
  5
CA2
  8
DATA
  6
CONTINUOUS
 62
     7
 10
87.816031890530056
 20
23.72187908688592
 30
0.0
  0
VERTEX
  5
CA3
  8
DATA
  6
CONTINUOUS
 62
     7
 10
87.805240385412958
 20
23.849374520552001
 30
0.0
  0
VERTEX
  5
CA4
  8
DATA
  6
CONTINUOUS
 62
     7
 10
87.78432883026052
 20
23.972122305729162
 30
0.0
  0
VERTEX
  5
CA5
  8
DATA
  6
CONTINUOUS
 62
     7
 10
87.753297225072714
 20
24.090122442417389
 30
0.0
  0
VERTEX
  5
CA6
  8
DATA
  6
CONTINUOUS
 62
     7
 10
87.712145569849582
 20
24.203374930616711
 30
0.0
  0
VERTEX
  5
CA7
  8
DATA
  6
CONTINUOUS
 62
     7
 10
87.660873864591068
 20
24.311879770327089
 30
0.0
  0
VERTEX
  5
CA8
  8
DATA
  6
CONTINUOUS
 62
     7
 10
87.599482109297213
 20
24.415636961548561
 30
0.0
  0
VERTEX
  5
CA9
  8
DATA
  6
CONTINUOUS
 62
     7
 10
87.527970303967976
 20
24.514646504281089
 30
0.0
  0
VERTEX
  5
CAA
  8
DATA
  6
CONTINUOUS
 62
     7
 10
87.446338448603399
 20
24.608908398524719
 30
0.0
  0
VERTEX
  5
CAB
  8
DATA
  6
CONTINUOUS
 62
     7
 10
87.446338448603399
 20
24.608908398524719
 30
0.0
  0
SEQEND
  5
CAC
  8
DATA
  6
CONTINUOUS
 62
     7
  0
LINE
  5
30E
  8
DATA
  6
CONTINUOUS
 62
     7
 10
87.816031890530056
 20
23.709441323509179
 30
0.0
 11
87.816031890530056
 21
23.72187908688592
 31
0.0
  0
POLYLINE
  5
30F
  8
DATA
  6
CONTINUOUS
 62
     7
 66
     1
 10
0.0
 20
0.0
 30
0.0
 70
   128
  0
VERTEX
  5
CAD
  8
DATA
  6
CONTINUOUS
 62
     7
 10
87.816031890530056
 20
15.49165240891954
 30
0.0
  0
VERTEX
  5
CAE
  8
DATA
  6
CONTINUOUS
 62
     7
 10
87.816031890530382
 20
15.523740342708111
 30
0.0
  0
VERTEX
  5
CAF
  8
DATA
  6
CONTINUOUS
 62
     7
 10
87.816031890530624
 20
15.56538909309328
 30
0.0
  0
VERTEX
  5
CB0
  8
DATA
  6
CONTINUOUS
 62
     7
 10
87.816031890530837
 20
15.61659866007505
 30
0.0
  0
VERTEX
  5
CB1
  8
DATA
  6
CONTINUOUS
 62
     7
 10
87.816031890530951
 20
15.677369043653419
 30
0.0
  0
VERTEX
  5
CB2
  8
DATA
  6
CONTINUOUS
 62
     7
 10
87.816031890531022
 20
15.74770024382839
 30
0.0
  0
VERTEX
  5
CB3
  8
DATA
  6
CONTINUOUS
 62
     7
 10
87.816031890531022
 20
15.82759226059996
 30
0.0
  0
VERTEX
  5
CB4
  8
DATA
  6
CONTINUOUS
 62
     7
 10
87.816031890530908
 20
15.91704509396812
 30
0.0
  0
VERTEX
  5
CB5
  8
DATA
  6
CONTINUOUS
 62
     7
 10
87.816031890530766
 20
16.016058743932891
 30
0.0
  0
VERTEX
  5
CB6
  8
DATA
  6
CONTINUOUS
 62
     7
 10
87.816031890530766
 20
16.016058743932891
 30
0.0
  0
VERTEX
  5
CB7
  8
DATA
  6
CONTINUOUS
 62
     7
 10
87.81603189053061
 20
16.124282254303971
 30
0.0
  0
VERTEX
  5
CB8
  8
DATA
  6
CONTINUOUS
 62
     7
 10
87.816031890530454
 20
16.24136466889107
 30
0.0
  0
VERTEX
  5
CB9
  8
DATA
  6
CONTINUOUS
 62
     7
 10
87.816031890530326
 20
16.367305987694198
 30
0.0
  0
VERTEX
  5
CBA
  8
DATA
  6
CONTINUOUS
 62
     7
 10
87.816031890530226
 20
16.50210621071335
 30
0.0
  0
VERTEX
  5
CBB
  8
DATA
  6
CONTINUOUS
 62
     7
 10
87.816031890530127
 20
16.645765337948529
 30
0.0
  0
VERTEX
  5
CBC
  8
DATA
  6
CONTINUOUS
 62
     7
 10
87.816031890530056
 20
16.79828336939973
 30
0.0
  0
VERTEX
  5
CBD
  8
DATA
  6
CONTINUOUS
 62
     7
 10
87.816031890530056
 20
16.959660305066951
 30
0.0
  0
VERTEX
  5
CBE
  8
DATA
  6
CONTINUOUS
 62
     7
 10
87.816031890530056
 20
17.129896144950202
 30
0.0
  0
VERTEX
  5
CBF
  8
DATA
  6
CONTINUOUS
 62
     7
 10
87.816031890530056
 20
17.129896144950202
 30
0.0
  0
VERTEX
  5
CC0
  8
DATA
  6
CONTINUOUS
 62
     7
 10
87.816031890530056
 20
17.312260257228541
 30
0.0
  0
VERTEX
  5
CC1
  8
DATA
  6
CONTINUOUS
 62
     7
 10
87.816031890530056
 20
17.510022010081052
 30
0.0
  0
VERTEX
  5
CC2
  8
DATA
  6
CONTINUOUS
 62
     7
 10
87.816031890530056
 20
17.723181403507731
 30
0.0
  0
VERTEX
  5
CC3
  8
DATA
  6
CONTINUOUS
 62
     7
 10
87.816031890530056
 20
17.95173843750857
 30
0.0
  0
VERTEX
  5
CC4
  8
DATA
  6
CONTINUOUS
 62
     7
 10
87.816031890530056
 20
18.195693112083578
 30
0.0
  0
VERTEX
  5
CC5
  8
DATA
  6
CONTINUOUS
 62
     7
 10
87.816031890530056
 20
18.455045427232761
 30
0.0
  0
VERTEX
  5
CC6
  8
DATA
  6
CONTINUOUS
 62
     7
 10
87.816031890530056
 20
18.729795382956091
 30
0.0
  0
VERTEX
  5
CC7
  8
DATA
  6
CONTINUOUS
 62
     7
 10
87.816031890530056
 20
19.01994297925361
 30
0.0
  0
VERTEX
  5
CC8
  8
DATA
  6
CONTINUOUS
 62
     7
 10
87.816031890530056
 20
19.01994297925361
 30
0.0
  0
VERTEX
  5
CC9
  8
DATA
  6
CONTINUOUS
 62
     7
 10
87.816031890530056
 20
19.316485047163699
 30
0.0
  0
VERTEX
  5
CCA
  8
DATA
  6
CONTINUOUS
 62
     7
 10
87.816031890530056
 20
19.610418417724819
 30
0.0
  0
VERTEX
  5
CCB
  8
DATA
  6
CONTINUOUS
 62
     7
 10
87.816031890530056
 20
19.901743090936961
 30
0.0
  0
VERTEX
  5
CCC
  8
DATA
  6
CONTINUOUS
 62
     7
 10
87.816031890530056
 20
20.190459066800109
 30
0.0
  0
VERTEX
  5
CCD
  8
DATA
  6
CONTINUOUS
 62
     7
 10
87.816031890530056
 20
20.476566345314279
 30
0.0
  0
VERTEX
  5
CCE
  8
DATA
  6
CONTINUOUS
 62
     7
 10
87.816031890530056
 20
20.760064926479458
 30
0.0
  0
VERTEX
  5
CCF
  8
DATA
  6
CONTINUOUS
 62
     7
 10
87.816031890530056
 20
21.04095481029567
 30
0.0
  0
VERTEX
  5
CD0
  8
DATA
  6
CONTINUOUS
 62
     7
 10
87.816031890530056
 20
21.319235996762892
 30
0.0
  0
VERTEX
  5
CD1
  8
DATA
  6
CONTINUOUS
 62
     7
 10
87.816031890530056
 20
21.319235996762892
 30
0.0
  0
VERTEX
  5
CD2
  8
DATA
  6
CONTINUOUS
 62
     7
 10
87.816031890530056
 20
21.588110771646139
 30
0.0
  0
VERTEX
  5
CD3
  8
DATA
  6
CONTINUOUS
 62
     7
 10
87.816031890530056
 20
21.84078142071041
 30
0.0
  0
VERTEX
  5
CD4
  8
DATA
  6
CONTINUOUS
 62
     7
 10
87.816031890530127
 20
22.077247943955701
 30
0.0
  0
VERTEX
  5
CD5
  8
DATA
  6
CONTINUOUS
 62
     7
 10
87.816031890530226
 20
22.297510341382011
 30
0.0
  0
VERTEX
  5
CD6
  8
DATA
  6
CONTINUOUS
 62
     7
 10
87.816031890530326
 20
22.50156861298936
 30
0.0
  0
VERTEX
  5
CD7
  8
DATA
  6
CONTINUOUS
 62
     7
 10
87.816031890530454
 20
22.689422758777731
 30
0.0
  0
VERTEX
  5
CD8
  8
DATA
  6
CONTINUOUS
 62
     7
 10
87.81603189053061
 20
22.861072778747118
 30
0.0
  0
VERTEX
  5
CD9
  8
DATA
  6
CONTINUOUS
 62
     7
 10
87.816031890530766
 20
23.016518672897529
 30
0.0
  0
VERTEX
  5
CDA
  8
DATA
  6
CONTINUOUS
 62
     7
 10
87.816031890530766
 20
23.016518672897529
 30
0.0
  0
VERTEX
  5
CDB
  8
DATA
  6
CONTINUOUS
 62
     7
 10
87.816031890530908
 20
23.15627144164916
 30
0.0
  0
VERTEX
  5
CDC
  8
DATA
  6
CONTINUOUS
 62
     7
 10
87.816031890531022
 20
23.280842085422162
 30
0.0
  0
VERTEX
  5
CDD
  8
DATA
  6
CONTINUOUS
 62
     7
 10
87.816031890531022
 20
23.390230604216541
 30
0.0
  0
VERTEX
  5
CDE
  8
DATA
  6
CONTINUOUS
 62
     7
 10
87.816031890530951
 20
23.484436998032312
 30
0.0
  0
VERTEX
  5
CDF
  8
DATA
  6
CONTINUOUS
 62
     7
 10
87.816031890530837
 20
23.563461266869449
 30
0.0
  0
VERTEX
  5
CE0
  8
DATA
  6
CONTINUOUS
 62
     7
 10
87.816031890530624
 20
23.627303410727979
 30
0.0
  0
VERTEX
  5
CE1
  8
DATA
  6
CONTINUOUS
 62
     7
 10
87.816031890530382
 20
23.67596342960789
 30
0.0
  0
VERTEX
  5
CE2
  8
DATA
  6
CONTINUOUS
 62
     7
 10
87.816031890530056
 20
23.709441323509179
 30
0.0
  0
VERTEX
  5
CE3
  8
DATA
  6
CONTINUOUS
 62
     7
 10
87.816031890530056
 20
23.709441323509179
 30
0.0
  0
SEQEND
  5
CE4
  8
DATA
  6
CONTINUOUS
 62
     7
  0
POLYLINE
  5
348
  8
DATA
  6
CONTINUOUS
 62
     7
 66
     1
 10
0.0
 20
0.0
 30
0.0
  0
VERTEX
  5
CE5
  8
DATA
  6
CONTINUOUS
 62
     7
 10
87.816031890530056
 20
15.47838505762444
 30
0.0
  0
VERTEX
  5
CE6
  8
DATA
  6
CONTINUOUS
 62
     7
 10
87.816031890530056
 20
15.49165240891954
 30
0.0
  0
VERTEX
  5
CE7
  8
DATA
  6
CONTINUOUS
 62
     7
 10
87.816031890530056
 20
15.49165240891954
 30
0.0
  0
SEQEND
  5
CE8
  8
DATA
  6
CONTINUOUS
 62
     7
  0
POLYLINE
  5
34D
  8
DATA
  6
CONTINUOUS
 62
     7
 66
     1
 10
0.0
 20
0.0
 30
0.0
 70
   128
  0
VERTEX
  5
CE9
  8
DATA
  6
CONTINUOUS
 62
     7
 10
86.487634557501281
 20
14.18526337725085
 30
0.0
  0
VERTEX
  5
CEA
  8
DATA
  6
CONTINUOUS
 62
     7
 10
86.623076223710981
 20
14.193995875500541
 30
0.0
  0
VERTEX
  5
CEB
  8
DATA
  6
CONTINUOUS
 62
     7
 10
86.753048207250785
 20
14.21372728307102
 30
0.0
  0
VERTEX
  5
CEC
  8
DATA
  6
CONTINUOUS
 62
     7
 10
86.877550508120734
 20
14.24445759996229
 30
0.0
  0
VERTEX
  5
CED
  8
DATA
  6
CONTINUOUS
 62
     7
 10
86.996583126320758
 20
14.286186826174349
 30
0.0
  0
VERTEX
  5
CEE
  8
DATA
  6
CONTINUOUS
 62
     7
 10
87.110146061850912
 20
14.3389149617072
 30
0.0
  0
VERTEX
  5
CEF
  8
DATA
  6
CONTINUOUS
 62
     7
 10
87.218239314711127
 20
14.40264200656085
 30
0.0
  0
VERTEX
  5
CF0
  8
DATA
  6
CONTINUOUS
 62
     7
 10
87.320862884901473
 20
14.477367960735281
 30
0.0
  0
VERTEX
  5
CF1
  8
DATA
  6
CONTINUOUS
 62
     7
 10
87.418016772421893
 20
14.563092824230511
 30
0.0
  0
VERTEX
  5
CF2
  8
DATA
  6
CONTINUOUS
 62
     7
 10
87.418016772421893
 20
14.563092824230511
 30
0.0
  0
VERTEX
  5
CF3
  8
DATA
  6
CONTINUOUS
 62
     7
 10
87.506852424054586
 20
14.65721554376346
 30
0.0
  0
VERTEX
  5
CF4
  8
DATA
  6
CONTINUOUS
 62
     7
 10
87.584521286581861
 20
14.75713506605107
 30
0.0
  0
VERTEX
  5
CF5
  8
DATA
  6
CONTINUOUS
 62
     7
 10
87.651023360003578
 20
14.862851391093329
 30
0.0
  0
VERTEX
  5
CF6
  8
DATA
  6
CONTINUOUS
 62
     7
 10
87.706358644319863
 20
14.974364518890249
 30
0.0
  0
VERTEX
  5
CF7
  8
DATA
  6
CONTINUOUS
 62
     7
 10
87.750527139530661
 20
15.091674449441809
 30
0.0
  0
VERTEX
  5
CF8
  8
DATA
  6
CONTINUOUS
 62
     7
 10
87.783528845635928
 20
15.21478118274803
 30
0.0
  0
VERTEX
  5
CF9
  8
DATA
  6
CONTINUOUS
 62
     7
 10
87.805363762635722
 20
15.343684718808911
 30
0.0
  0
VERTEX
  5
CFA
  8
DATA
  6
CONTINUOUS
 62
     7
 10
87.816031890530056
 20
15.47838505762444
 30
0.0
  0
VERTEX
  5
CFB
  8
DATA
  6
CONTINUOUS
 62
     7
 10
87.816031890530056
 20
15.47838505762444
 30
0.0
  0
SEQEND
  5
CFC
  8
DATA
  6
CONTINUOUS
 62
     7
  0
LINE
  5
362
  8
DATA
  6
CONTINUOUS
 62
     7
 10
86.47480016632295
 20
14.18526337725085
 30
0.0
 11
86.487634557501281
 21
14.18526337725085
 31
0.0
  0
POLYLINE
  5
363
  8
DATA
  6
CONTINUOUS
 62
     7
 66
     1
 10
0.0
 20
0.0
 30
0.0
 70
   128
  0
VERTEX
  5
CFD
  8
DATA
  6
CONTINUOUS
 62
     7
 10
65.332237378979073
 20
14.18492427561875
 30
0.0
  0
VERTEX
  5
CFE
  8
DATA
  6
CONTINUOUS
 62
     7
 10
65.414792572584886
 20
14.18492559970611
 30
0.0
  0
VERTEX
  5
CFF
  8
DATA
  6
CONTINUOUS
 62
     7
 10
65.521945643708591
 20
14.18492731831426
 30
0.0
  0
VERTEX
  5
D00
  8
DATA
  6
CONTINUOUS
 62
     7
 10
65.653696592350201
 20
14.18492943144318
 30
0.0
  0
VERTEX
  5
D01
  8
DATA
  6
CONTINUOUS
 62
     7
 10
65.810045418509702
 20
14.18493193909287
 30
0.0
  0
VERTEX
  5
D02
  8
DATA
  6
CONTINUOUS
 62
     7
 10
65.990992122187095
 20
14.184934841263329
 30
0.0
  0
VERTEX
  5
D03
  8
DATA
  6
CONTINUOUS
 62
     7
 10
66.196536703382392
 20
14.18493813795456
 30
0.0
  0
VERTEX
  5
D04
  8
DATA
  6
CONTINUOUS
 62
     7
 10
66.426679162095567
 20
14.18494182916656
 30
0.0
  0
VERTEX
  5
D05
  8
DATA
  6
CONTINUOUS
 62
     7
 10
66.681419498326647
 20
14.184945914899339
 30
0.0
  0
VERTEX
  5
D06
  8
DATA
  6
CONTINUOUS
 62
     7
 10
66.681419498326647
 20
14.184945914899339
 30
0.0
  0
VERTEX
  5
D07
  8
DATA
  6
CONTINUOUS
 62
     7
 10
66.950156765301443
 20
14.18495022512626
 30
0.0
  0
VERTEX
  5
D08
  8
DATA
  6
CONTINUOUS
 62
     7
 10
67.222290016245779
 20
14.184954589820739
 30
0.0
  0
VERTEX
  5
D09
  8
DATA
  6
CONTINUOUS
 62
     7
 10
67.497819251159683
 20
14.18495900898276
 30
0.0
  0
VERTEX
  5
D0A
  8
DATA
  6
CONTINUOUS
 62
     7
 10
67.776744470043141
 20
14.184963482612311
 30
0.0
  0
VERTEX
  5
D0B
  8
DATA
  6
CONTINUOUS
 62
     7
 10
68.059065672896111
 20
14.18496801070941
 30
0.0
  0
VERTEX
  5
D0C
  8
DATA
  6
CONTINUOUS
 62
     7
 10
68.344782859718649
 20
14.18497259327405
 30
0.0
  0
VERTEX
  5
D0D
  8
DATA
  6
CONTINUOUS
 62
     7
 10
68.633896030510726
 20
14.184977230306229
 30
0.0
  0
VERTEX
  5
D0E
  8
DATA
  6
CONTINUOUS
 62
     7
 10
68.926405185272358
 20
14.184981921805949
 30
0.0
  0
VERTEX
  5
D0F
  8
DATA
  6
CONTINUOUS
 62
     7
 10
68.926405185272358
 20
14.184981921805949
 30
0.0
  0
VERTEX
  5
D10
  8
DATA
  6
CONTINUOUS
 62
     7
 10
69.224037493188234
 20
14.184986695475009
 30
0.0
  0
VERTEX
  5
D11
  8
DATA
  6
CONTINUOUS
 62
     7
 10
69.52852012344303
 20
14.1849915790152
 30
0.0
  0
VERTEX
  5
D12
  8
DATA
  6
CONTINUOUS
 62
     7
 10
69.839853076036775
 20
14.184996572426529
 30
0.0
  0
VERTEX
  5
D13
  8
DATA
  6
CONTINUOUS
 62
     7
 10
70.158036350969425
 20
14.185001675708991
 30
0.0
  0
VERTEX
  5
D14
  8
DATA
  6
CONTINUOUS
 62
     7
 10
70.483069948241038
 20
14.18500688886259
 30
0.0
  0
VERTEX
  5
D15
  8
DATA
  6
CONTINUOUS
 62
     7
 10
70.814953867851585
 20
14.185012211887321
 30
0.0
  0
VERTEX
  5
D16
  8
DATA
  6
CONTINUOUS
 62
     7
 10
71.153688109801067
 20
14.185017644783191
 30
0.0
  0
VERTEX
  5
D17
  8
DATA
  6
CONTINUOUS
 62
     7
 10
71.499272674089454
 20
14.18502318755019
 30
0.0
  0
VERTEX
  5
D18
  8
DATA
  6
CONTINUOUS
 62
     7
 10
71.499272674089454
 20
14.18502318755019
 30
0.0
  0
VERTEX
  5
D19
  8
DATA
  6
CONTINUOUS
 62
     7
 10
71.849994552451832
 20
14.185028812713609
 30
0.0
  0
VERTEX
  5
D1A
  8
DATA
  6
CONTINUOUS
 62
     7
 10
72.204140736623216
 20
14.185034492798749
 30
0.0
  0
VERTEX
  5
D1B
  8
DATA
  6
CONTINUOUS
 62
     7
 10
72.561711226603578
 20
14.185040227805599
 30
0.0
  0
VERTEX
  5
D1C
  8
DATA
  6
CONTINUOUS
 62
     7
 10
72.922706022392944
 20
14.185046017734161
 30
0.0
  0
VERTEX
  5
D1D
  8
DATA
  6
CONTINUOUS
 62
     7
 10
73.287125123991331
 20
14.18505186258443
 30
0.0
  0
VERTEX
  5
D1E
  8
DATA
  6
CONTINUOUS
 62
     7
 10
73.654968531398694
 20
14.18505776235641
 30
0.0
  0
VERTEX
  5
D1F
  8
DATA
  6
CONTINUOUS
 62
     7
 10
74.026236244615063
 20
14.185063717050101
 30
0.0
  0
VERTEX
  5
D20
  8
DATA
  6
CONTINUOUS
 62
     7
 10
74.400928263640424
 20
14.18506972666551
 30
0.0
  0
VERTEX
  5
D21
  8
DATA
  6
CONTINUOUS
 62
     7
 10
74.400928263640424
 20
14.18506972666551
 30
0.0
  0
VERTEX
  5
D22
  8
DATA
  6
CONTINUOUS
 62
     7
 10
74.77733244302901
 20
14.185075763741899
 30
0.0
  0
VERTEX
  5
D23
  8
DATA
  6
CONTINUOUS
 62
     7
 10
75.153736637335143
 20
14.18508180081856
 30
0.0
  0
VERTEX
  5
D24
  8
DATA
  6
CONTINUOUS
 62
     7
 10
75.530140846558723
 20
14.185087837895489
 30
0.0
  0
VERTEX
  5
D25
  8
DATA
  6
CONTINUOUS
 62
     7
 10
75.906545070699792
 20
14.185093874972679
 30
0.0
  0
VERTEX
  5
D26
  8
DATA
  6
CONTINUOUS
 62
     7
 10
76.282949309758351
 20
14.18509991205015
 30
0.0
  0
VERTEX
  5
D27
  8
DATA
  6
CONTINUOUS
 62
     7
 10
76.659353563734413
 20
14.18510594912787
 30
0.0
  0
VERTEX
  5
D28
  8
DATA
  6
CONTINUOUS
 62
     7
 10
77.035757832627951
 20
14.185111986205859
 30
0.0
  0
VERTEX
  5
D29
  8
DATA
  6
CONTINUOUS
 62
     7
 10
77.412162116438978
 20
14.185118023284121
 30
0.0
  0
VERTEX
  5
D2A
  8
DATA
  6
CONTINUOUS
 62
     7
 10
77.412162116438978
 20
14.185118023284121
 30
0.0
  0
VERTEX
  5
D2B
  8
DATA
  6
CONTINUOUS
 62
     7
 10
77.786854181030222
 20
14.18512403290042
 30
0.0
  0
VERTEX
  5
D2C
  8
DATA
  6
CONTINUOUS
 62
     7
 10
78.158121792264424
 20
14.185129987592511
 30
0.0
  0
VERTEX
  5
D2D
  8
DATA
  6
CONTINUOUS
 62
     7
 10
78.525964950141542
 20
14.18513588736041
 30
0.0
  0
VERTEX
  5
D2E
  8
DATA
  6
CONTINUOUS
 62
     7
 10
78.890383654661633
 20
14.18514173220411
 30
0.0
  0
VERTEX
  5
D2F
  8
DATA
  6
CONTINUOUS
 62
     7
 10
79.251377905824626
 20
14.185147522123611
 30
0.0
  0
VERTEX
  5
D30
  8
DATA
  6
CONTINUOUS
 62
     7
 10
79.608947703630577
 20
14.185153257118911
 30
0.0
  0
VERTEX
  5
D31
  8
DATA
  6
CONTINUOUS
 62
     7
 10
79.963093048079429
 20
14.18515893719001
 30
0.0
  0
VERTEX
  5
D32
  8
DATA
  6
CONTINUOUS
 62
     7
 10
80.313813939171268
 20
14.18516456233691
 30
0.0
  0
VERTEX
  5
D33
  8
DATA
  6
CONTINUOUS
 62
     7
 10
80.313813939171268
 20
14.18516456233691
 30
0.0
  0
VERTEX
  5
D34
  8
DATA
  6
CONTINUOUS
 62
     7
 10
80.659398144627488
 20
14.1851701050975
 30
0.0
  0
VERTEX
  5
D35
  8
DATA
  6
CONTINUOUS
 62
     7
 10
80.998133432169624
 20
14.18517553800964
 30
0.0
  0
VERTEX
  5
D36
  8
DATA
  6
CONTINUOUS
 62
     7
 10
81.330019801797633
 20
14.18518086107334
 30
0.0
  0
VERTEX
  5
D37
  8
DATA
  6
CONTINUOUS
 62
     7
 10
81.655057253511515
 20
14.1851860742886
 30
0.0
  0
VERTEX
  5
D38
  8
DATA
  6
CONTINUOUS
 62
     7
 10
81.973245787311313
 20
14.185191177655421
 30
0.0
  0
VERTEX
  5
D39
  8
DATA
  6
CONTINUOUS
 62
     7
 10
82.284585403196942
 20
14.185196171173789
 30
0.0
  0
VERTEX
  5
D3A
  8
DATA
  6
CONTINUOUS
 62
     7
 10
82.589076101168502
 20
14.185201054843731
 30
0.0
  0
VERTEX
  5
D3B
  8
DATA
  6
CONTINUOUS
 62
     7
 10
82.886717881225934
 20
14.18520582866522
 30
0.0
  0
VERTEX
  5
D3C
  8
DATA
  6
CONTINUOUS
 62
     7
 10
82.886717881225934
 20
14.18520582866522
 30
0.0
  0
VERTEX
  5
D3D
  8
DATA
  6
CONTINUOUS
 62
     7
 10
83.179302936276642
 20
14.18521052138286
 30
0.0
  0
VERTEX
  5
D3E
  8
DATA
  6
CONTINUOUS
 62
     7
 10
83.468623459227913
 20
14.185215161741221
 30
0.0
  0
VERTEX
  5
D3F
  8
DATA
  6
CONTINUOUS
 62
     7
 10
83.754679450079863
 20
14.18521974974032
 30
0.0
  0
VERTEX
  5
D40
  8
DATA
  6
CONTINUOUS
 62
     7
 10
84.037470908832432
 20
14.18522428538013
 30
0.0
  0
VERTEX
  5
D41
  8
DATA
  6
CONTINUOUS
 62
     7
 10
84.316997835485566
 20
14.18522876866068
 30
0.0
  0
VERTEX
  5
D42
  8
DATA
  6
CONTINUOUS
 62
     7
 10
84.593260230039391
 20
14.185233199581949
 30
0.0
  0
VERTEX
  5
D43
  8
DATA
  6
CONTINUOUS
 62
     7
 10
84.866258092493794
 20
14.18523757814396
 30
0.0
  0
VERTEX
  5
D44
  8
DATA
  6
CONTINUOUS
 62
     7
 10
85.135991422848875
 20
14.18524190434669
 30
0.0
  0
VERTEX
  5
D45
  8
DATA
  6
CONTINUOUS
 62
     7
 10
85.135991422848875
 20
14.18524190434669
 30
0.0
  0
VERTEX
  5
D46
  8
DATA
  6
CONTINUOUS
 62
     7
 10
85.391498740732828
 20
14.185246002381019
 30
0.0
  0
VERTEX
  5
D47
  8
DATA
  6
CONTINUOUS
 62
     7
 10
85.621818565774007
 20
14.18524969643784
 30
0.0
  0
VERTEX
  5
D48
  8
DATA
  6
CONTINUOUS
 62
     7
 10
85.826950897972466
 20
14.18525298651714
 30
0.0
  0
VERTEX
  5
D49
  8
DATA
  6
CONTINUOUS
 62
     7
 10
86.006895737328094
 20
14.18525587261891
 30
0.0
  0
VERTEX
  5
D4A
  8
DATA
  6
CONTINUOUS
 62
     7
 10
86.161653083840946
 20
14.18525835474318
 30
0.0
  0
VERTEX
  5
D4B
  8
DATA
  6
CONTINUOUS
 62
     7
 10
86.291222937511066
 20
14.185260432889921
 30
0.0
  0
VERTEX
  5
D4C
  8
DATA
  6
CONTINUOUS
 62
     7
 10
86.395605298338381
 20
14.185262107059151
 30
0.0
  0
VERTEX
  5
D4D
  8
DATA
  6
CONTINUOUS
 62
     7
 10
86.47480016632295
 20
14.18526337725085
 30
0.0
  0
VERTEX
  5
D4E
  8
DATA
  6
CONTINUOUS
 62
     7
 10
86.47480016632295
 20
14.18526337725085
 30
0.0
  0
SEQEND
  5
D4F
  8
DATA
  6
CONTINUOUS
 62
     7
  0
POLYLINE
  5
3B7
  8
DATA
  6
CONTINUOUS
 62
     7
 66
     1
 10
0.0
 20
0.0
 30
0.0
  0
VERTEX
  5
D50
  8
DATA
  6
CONTINUOUS
 62
     7
 10
65.305781396411064
 20
14.18492427561875
 30
0.0
  0
VERTEX
  5
D51
  8
DATA
  6
CONTINUOUS
 62
     7
 10
65.332237378979073
 20
14.18492427561875
 30
0.0
  0
VERTEX
  5
D52
  8
DATA
  6
CONTINUOUS
 62
     7
 10
65.332237378979073
 20
14.18492427561875
 30
0.0
  0
SEQEND
  5
D53
  8
DATA
  6
CONTINUOUS
 62
     7
  0
POLYLINE
  5
3BC
  8
DATA
  6
CONTINUOUS
 62
     7
 66
     1
 10
0.0
 20
0.0
 30
0.0
 70
   128
  0
VERTEX
  5
D54
  8
DATA
  6
CONTINUOUS
 62
     7
 10
63.990920879365319
 20
15.46538414332519
 30
0.0
  0
VERTEX
  5
D55
  8
DATA
  6
CONTINUOUS
 62
     7
 10
64.011152414734994
 20
15.29272751661394
 30
0.0
  0
VERTEX
  5
D56
  8
DATA
  6
CONTINUOUS
 62
     7
 10
64.043034933108942
 20
15.13402479283689
 30
0.0
  0
VERTEX
  5
D57
  8
DATA
  6
CONTINUOUS
 62
     7
 10
64.086568434487177
 20
14.98927597199404
 30
0.0
  0
VERTEX
  5
D58
  8
DATA
  6
CONTINUOUS
 62
     7
 10
64.141752918869685
 20
14.858481054085379
 30
0.0
  0
VERTEX
  5
D59
  8
DATA
  6
CONTINUOUS
 62
     7
 10
64.208588386256466
 20
14.74164003911091
 30
0.0
  0
VERTEX
  5
D5A
  8
DATA
  6
CONTINUOUS
 62
     7
 10
64.287074836647577
 20
14.638752927070639
 30
0.0
  0
VERTEX
  5
D5B
  8
DATA
  6
CONTINUOUS
 62
     7
 10
64.377212270042961
 20
14.54981971796456
 30
0.0
  0
VERTEX
  5
D5C
  8
DATA
  6
CONTINUOUS
 62
     7
 10
64.479000686442575
 20
14.47484041179268
 30
0.0
  0
VERTEX
  5
D5D
  8
DATA
  6
CONTINUOUS
 62
     7
 10
64.479000686442575
 20
14.47484041179268
 30
0.0
  0
VERTEX
  5
D5E
  8
DATA
  6
CONTINUOUS
 62
     7
 10
64.58608130444992
 20
14.41080841179827
 30
0.0
  0
VERTEX
  5
D5F
  8
DATA
  6
CONTINUOUS
 62
     7
 10
64.692095342668296
 20
14.354717121224621
 30
0.0
  0
VERTEX
  5
D60
  8
DATA
  6
CONTINUOUS
 62
     7
 10
64.797042801097774
 20
14.30656654007174
 30
0.0
  0
VERTEX
  5
D61
  8
DATA
  6
CONTINUOUS
 62
     7
 10
64.900923679738284
 20
14.266356668339609
 30
0.0
  0
VERTEX
  5
D62
  8
DATA
  6
CONTINUOUS
 62
     7
 10
65.003737978589896
 20
14.23408750602826
 30
0.0
  0
VERTEX
  5
D63
  8
DATA
  6
CONTINUOUS
 62
     7
 10
65.105485697652554
 20
14.20975905313766
 30
0.0
  0
VERTEX
  5
D64
  8
DATA
  6
CONTINUOUS
 62
     7
 10
65.206166836926286
 20
14.193371309667819
 30
0.0
  0
VERTEX
  5
D65
  8
DATA
  6
CONTINUOUS
 62
     7
 10
65.305781396411064
 20
14.18492427561875
 30
0.0
  0
VERTEX
  5
D66
  8
DATA
  6
CONTINUOUS
 62
     7
 10
65.305781396411064
 20
14.18492427561875
 30
0.0
  0
SEQEND
  5
D67
  8
DATA
  6
CONTINUOUS
 62
     7
  0
LINE
  5
3D1
  8
DATA
  6
CONTINUOUS
 62
     7
 10
63.990920879365319
 20
15.491143756471381
 30
0.0
 11
63.990920879365319
 21
15.46538414332519
 31
0.0
  0
POLYLINE
  5
3D2
  8
DATA
  6
CONTINUOUS
 62
     7
 66
     1
 10
0.0
 20
0.0
 30
0.0
 70
   128
  0
VERTEX
  5
D68
  8
DATA
  6
CONTINUOUS
 62
     7
 10
63.990666553142603
 20
23.709102221877082
 30
0.0
  0
VERTEX
  5
D69
  8
DATA
  6
CONTINUOUS
 62
     7
 10
63.990668635878379
 20
23.641803477112891
 30
0.0
  0
VERTEX
  5
D6A
  8
DATA
  6
CONTINUOUS
 62
     7
 10
63.990671534263221
 20
23.548148934881361
 30
0.0
  0
VERTEX
  5
D6B
  8
DATA
  6
CONTINUOUS
 62
     7
 10
63.990675248297173
 20
23.428138595182471
 30
0.0
  0
VERTEX
  5
D6C
  8
DATA
  6
CONTINUOUS
 62
     7
 10
63.990679777980191
 20
23.281772458016238
 30
0.0
  0
VERTEX
  5
D6D
  8
DATA
  6
CONTINUOUS
 62
     7
 10
63.990685123312289
 20
23.109050523382649
 30
0.0
  0
VERTEX
  5
D6E
  8
DATA
  6
CONTINUOUS
 62
     7
 10
63.990691284293483
 20
22.909972791281731
 30
0.0
  0
VERTEX
  5
D6F
  8
DATA
  6
CONTINUOUS
 62
     7
 10
63.99069826092375
 20
22.68453926171345
 30
0.0
  0
VERTEX
  5
D70
  8
DATA
  6
CONTINUOUS
 62
     7
 10
63.990706053203112
 20
22.43274993467784
 30
0.0
  0
VERTEX
  5
D71
  8
DATA
  6
CONTINUOUS
 62
     7
 10
63.990706053203112
 20
22.43274993467784
 30
0.0
  0
VERTEX
  5
D72
  8
DATA
  6
CONTINUOUS
 62
     7
 10
63.9907143169318
 20
22.165726821861671
 30
0.0
  0
VERTEX
  5
D73
  8
DATA
  6
CONTINUOUS
 62
     7
 10
63.990722707910102
 20
21.894591934951759
 30
0.0
  0
VERTEX
  5
D74
  8
DATA
  6
CONTINUOUS
 62
     7
 10
63.990731226138017
 20
21.61934527394811
 30
0.0
  0
VERTEX
  5
D75
  8
DATA
  6
CONTINUOUS
 62
     7
 10
63.990739871615538
 20
21.339986838850731
 30
0.0
  0
VERTEX
  5
D76
  8
DATA
  6
CONTINUOUS
 62
     7
 10
63.990748644342681
 20
21.056516629659601
 30
0.0
  0
VERTEX
  5
D77
  8
DATA
  6
CONTINUOUS
 62
     7
 10
63.990757544319429
 20
20.768934646374731
 30
0.0
  0
VERTEX
  5
D78
  8
DATA
  6
CONTINUOUS
 62
     7
 10
63.990766571545791
 20
20.477240888996121
 30
0.0
  0
VERTEX
  5
D79
  8
DATA
  6
CONTINUOUS
 62
     7
 10
63.990775726021738
 20
20.181435357523771
 30
0.0
  0
VERTEX
  5
D7A
  8
DATA
  6
CONTINUOUS
 62
     7
 10
63.990775726021738
 20
20.181435357523771
 30
0.0
  0
VERTEX
  5
D7B
  8
DATA
  6
CONTINUOUS
 62
     7
 10
63.990784903657769
 20
19.88488146327585
 30
0.0
  0
VERTEX
  5
D7C
  8
DATA
  6
CONTINUOUS
 62
     7
 10
63.990794000364282
 20
19.59094261757053
 30
0.0
  0
VERTEX
  5
D7D
  8
DATA
  6
CONTINUOUS
 62
     7
 10
63.990803016141271
 20
19.299618820407812
 30
0.0
  0
VERTEX
  5
D7E
  8
DATA
  6
CONTINUOUS
 62
     7
 10
63.990811950988771
 20
19.010910071787681
 30
0.0
  0
VERTEX
  5
D7F
  8
DATA
  6
CONTINUOUS
 62
     7
 10
63.990820804906747
 20
18.724816371710158
 30
0.0
  0
VERTEX
  5
D80
  8
DATA
  6
CONTINUOUS
 62
     7
 10
63.990829577895219
 20
18.44133772017523
 30
0.0
  0
VERTEX
  5
D81
  8
DATA
  6
CONTINUOUS
 62
     7
 10
63.990838269954203
 20
18.16047411718289
 30
0.0
  0
VERTEX
  5
D82
  8
DATA
  6
CONTINUOUS
 62
     7
 10
63.990846881083662
 20
17.882225562733161
 30
0.0
  0
VERTEX
  5
D83
  8
DATA
  6
CONTINUOUS
 62
     7
 10
63.990846881083662
 20
17.882225562733161
 30
0.0
  0
VERTEX
  5
D84
  8
DATA
  6
CONTINUOUS
 62
     7
 10
63.990855201308527
 20
17.613376910988791
 30
0.0
  0
VERTEX
  5
D85
  8
DATA
  6
CONTINUOUS
 62
     7
 10
63.990863020653769
 20
17.360713016112548
 30
0.0
  0
VERTEX
  5
D86
  8
DATA
  6
CONTINUOUS
 62
     7
 10
63.990870339119361
 20
17.124233878104452
 30
0.0
  0
VERTEX
  5
D87
  8
DATA
  6
CONTINUOUS
 62
     7
 10
63.990877156705288
 20
16.903939496964469
 30
0.0
  0
VERTEX
  5
D88
  8
DATA
  6
CONTINUOUS
 62
     7
 10
63.9908834734116
 20
16.699829872692622
 30
0.0
  0
VERTEX
  5
D89
  8
DATA
  6
CONTINUOUS
 62
     7
 10
63.990889289238233
 20
16.511905005288909
 30
0.0
  0
VERTEX
  5
D8A
  8
DATA
  6
CONTINUOUS
 62
     7
 10
63.990894604185222
 20
16.340164894753329
 30
0.0
  0
VERTEX
  5
D8B
  8
DATA
  6
CONTINUOUS
 62
     7
 10
63.990899418252582
 20
16.18460954108588
 30
0.0
  0
VERTEX
  5
D8C
  8
DATA
  6
CONTINUOUS
 62
     7
 10
63.990899418252582
 20
16.18460954108588
 30
0.0
  0
VERTEX
  5
D8D
  8
DATA
  6
CONTINUOUS
 62
     7
 10
63.990903746756558
 20
16.044744034872071
 30
0.0
  0
VERTEX
  5
D8E
  8
DATA
  6
CONTINUOUS
 62
     7
 10
63.990907605013419
 20
15.920073466697399
 30
0.0
  0
VERTEX
  5
D8F
  8
DATA
  6
CONTINUOUS
 62
     7
 10
63.990910993023171
 20
15.81059783656187
 30
0.0
  0
VERTEX
  5
D90
  8
DATA
  6
CONTINUOUS
 62
     7
 10
63.990913910785821
 20
15.71631714446549
 30
0.0
  0
VERTEX
  5
D91
  8
DATA
  6
CONTINUOUS
 62
     7
 10
63.990916358301362
 20
15.63723139040825
 30
0.0
  0
VERTEX
  5
D92
  8
DATA
  6
CONTINUOUS
 62
     7
 10
63.990918335569781
 20
15.57334057439015
 30
0.0
  0
VERTEX
  5
D93
  8
DATA
  6
CONTINUOUS
 62
     7
 10
63.990919842591111
 20
15.52464469641119
 30
0.0
  0
VERTEX
  5
D94
  8
DATA
  6
CONTINUOUS
 62
     7
 10
63.990920879365319
 20
15.491143756471381
 30
0.0
  0
VERTEX
  5
D95
  8
DATA
  6
CONTINUOUS
 62
     7
 10
63.990920879365319
 20
15.491143756471381
 30
0.0
  0
SEQEND
  5
D96
  8
DATA
  6
CONTINUOUS
 62
     7
  0
POLYLINE
  5
402
  8
DATA
  6
CONTINUOUS
 62
     7
 66
     1
 10
0.0
 20
0.0
 30
0.0
  0
VERTEX
  5
D97
  8
DATA
  6
CONTINUOUS
 62
     7
 10
63.990666553142603
 20
23.721533929869349
 30
0.0
  0
VERTEX
  5
D98
  8
DATA
  6
CONTINUOUS
 62
     7
 10
63.990666553142603
 20
23.709102221877082
 30
0.0
  0
VERTEX
  5
D99
  8
DATA
  6
CONTINUOUS
 62
     7
 10
63.990666553142603
 20
23.709102221877082
 30
0.0
  0
SEQEND
  5
D9A
  8
DATA
  6
CONTINUOUS
 62
     7
  0
POLYLINE
  5
407
  8
DATA
  6
CONTINUOUS
 62
     7
 66
     1
 10
0.0
 20
0.0
 30
0.0
 70
   128
  0
VERTEX
  5
D9B
  8
DATA
  6
CONTINUOUS
 62
     7
 10
64.360278247354955
 20
24.608569296892611
 30
0.0
  0
VERTEX
  5
D9C
  8
DATA
  6
CONTINUOUS
 62
     7
 10
64.277717437747981
 20
24.51342107892884
 30
0.0
  0
VERTEX
  5
D9D
  8
DATA
  6
CONTINUOUS
 62
     7
 10
64.205545013235394
 20
24.413778231561029
 30
0.0
  0
VERTEX
  5
D9E
  8
DATA
  6
CONTINUOUS
 62
     7
 10
64.143760973817209
 20
24.309640754789189
 30
0.0
  0
VERTEX
  5
D9F
  8
DATA
  6
CONTINUOUS
 62
     7
 10
64.092365319493453
 20
24.2010086486133
 30
0.0
  0
VERTEX
  5
DA0
  8
DATA
  6
CONTINUOUS
 62
     7
 10
64.051358050264128
 20
24.087881913033371
 30
0.0
  0
VERTEX
  5
DA1
  8
DATA
  6
CONTINUOUS
 62
     7
 10
64.020739166129204
 20
23.97026054804941
 30
0.0
  0
VERTEX
  5
DA2
  8
DATA
  6
CONTINUOUS
 62
     7
 10
64.000508667088695
 20
23.848144553661399
 30
0.0
  0
VERTEX
  5
DA3
  8
DATA
  6
CONTINUOUS
 62
     7
 10
63.990666553142603
 20
23.721533929869349
 30
0.0
  0
VERTEX
  5
DA4
  8
DATA
  6
CONTINUOUS
 62
     7
 10
63.990666553142603
 20
23.721533929869349
 30
0.0
  0
SEQEND
  5
DA5
  8
DATA
  6
CONTINUOUS
 62
     7
  0
LINE
  5
413
  8
DATA
  6
CONTINUOUS
 62
     7
 10
64.368680095790822
 20
24.617216388471562
 30
0.0
 11
64.360278247354955
 21
24.608569296892611
 31
0.0
  0
POLYLINE
  5
414
  8
DATA
  6
CONTINUOUS
 62
     7
 66
     1
 10
0.0
 20
0.0
 30
0.0
 70
   128
  0
VERTEX
  5
DA6
  8
DATA
  6
CONTINUOUS
 62
     7
 10
68.911794190995522
 20
29.398040726689381
 30
0.0
  0
VERTEX
  5
DA7
  8
DATA
  6
CONTINUOUS
 62
     7
 10
68.874507579630489
 20
29.358803160700411
 30
0.0
  0
VERTEX
  5
DA8
  8
DATA
  6
CONTINUOUS
 62
     7
 10
68.822660747534343
 20
29.304243536717362
 30
0.0
  0
VERTEX
  5
DA9
  8
DATA
  6
CONTINUOUS
 62
     7
 10
68.756253694707112
 20
29.23436185474019
 30
0.0
  0
VERTEX
  5
DAA
  8
DATA
  6
CONTINUOUS
 62
     7
 10
68.675286421148783
 20
29.149158114768909
 30
0.0
  0
VERTEX
  5
DAB
  8
DATA
  6
CONTINUOUS
 62
     7
 10
68.57975892685937
 20
29.048632316803531
 30
0.0
  0
VERTEX
  5
DAC
  8
DATA
  6
CONTINUOUS
 62
     7
 10
68.469671211838815
 20
28.932784460844051
 30
0.0
  0
VERTEX
  5
DAD
  8
DATA
  6
CONTINUOUS
 62
     7
 10
68.345023276087218
 20
28.801614546890459
 30
0.0
  0
VERTEX
  5
DAE
  8
DATA
  6
CONTINUOUS
 62
     7
 10
68.205815119604509
 20
28.655122574942769
 30
0.0
  0
VERTEX
  5
DAF
  8
DATA
  6
CONTINUOUS
 62
     7
 10
68.205815119604509
 20
28.655122574942769
 30
0.0
  0
VERTEX
  5
DB0
  8
DATA
  6
CONTINUOUS
 62
     7
 10
68.058191049991024
 20
28.4997743424037
 30
0.0
  0
VERTEX
  5
DB1
  8
DATA
  6
CONTINUOUS
 62
     7
 10
67.908295374847171
 20
28.342035646675999
 30
0.0
  0
VERTEX
  5
DB2
  8
DATA
  6
CONTINUOUS
 62
     7
 10
67.756128094172936
 20
28.181906487759651
 30
0.0
  0
VERTEX
  5
DB3
  8
DATA
  6
CONTINUOUS
 62
     7
 10
67.601689207968306
 20
28.019386865654671
 30
0.0
  0
VERTEX
  5
DB4
  8
DATA
  6
CONTINUOUS
 62
     7
 10
67.44497871623328
 20
27.85447678036105
 30
0.0
  0
VERTEX
  5
DB5
  8
DATA
  6
CONTINUOUS
 62
     7
 10
67.285996618967872
 20
27.68717623187878
 30
0.0
  0
VERTEX
  5
DB6
  8
DATA
  6
CONTINUOUS
 62
     7
 10
67.124742916172067
 20
27.517485220207881
 30
0.0
  0
VERTEX
  5
DB7
  8
DATA
  6
CONTINUOUS
 62
     7
 10
66.961217607845853
 20
27.345403745348332
 30
0.0
  0
VERTEX
  5
DB8
  8
DATA
  6
CONTINUOUS
 62
     7
 10
66.961217607845853
 20
27.345403745348332
 30
0.0
  0
VERTEX
  5
DB9
  8
DATA
  6
CONTINUOUS
 62
     7
 10
66.79727759155378
 20
27.172885863677241
 30
0.0
  0
VERTEX
  5
DBA
  8
DATA
  6
CONTINUOUS
 62
     7
 10
66.634779764860298
 20
27.001885631571671
 30
0.0
  0
VERTEX
  5
DBB
  8
DATA
  6
CONTINUOUS
 62
     7
 10
66.473724127765436
 20
26.83240304903164
 30
0.0
  0
VERTEX
  5
DBC
  8
DATA
  6
CONTINUOUS
 62
     7
 10
66.314110680269181
 20
26.664438116057131
 30
0.0
  0
VERTEX
  5
DBD
  8
DATA
  6
CONTINUOUS
 62
     7
 10
66.155939422371532
 20
26.497990832648149
 30
0.0
  0
VERTEX
  5
DBE
  8
DATA
  6
CONTINUOUS
 62
     7
 10
65.999210354072474
 20
26.33306119880471
 30
0.0
  0
VERTEX
  5
DBF
  8
DATA
  6
CONTINUOUS
 62
     7
 10
65.843923475372065
 20
26.169649214526789
 30
0.0
  0
VERTEX
  5
DC0
  8
DATA
  6
CONTINUOUS
 62
     7
 10
65.690078786270249
 20
26.00775487981441
 30
0.0
  0
VERTEX
  5
DC1
  8
DATA
  6
CONTINUOUS
 62
     7
 10
65.690078786270249
 20
26.00775487981441
 30
0.0
  0
VERTEX
  5
DC2
  8
DATA
  6
CONTINUOUS
 62
     7
 10
65.541434328215558
 20
25.851332868850299
 30
0.0
  0
VERTEX
  5
DC3
  8
DATA
  6
CONTINUOUS
 62
     7
 10
65.401748142656487
 20
25.704337855817212
 30
0.0
  0
VERTEX
  5
DC4
  8
DATA
  6
CONTINUOUS
 62
     7
 10
65.271020229593034
 20
25.566769840715171
 30
0.0
  0
VERTEX
  5
DC5
  8
DATA
  6
CONTINUOUS
 62
     7
 10
65.149250589025243
 20
25.43862882354415
 30
0.0
  0
VERTEX
  5
DC6
  8
DATA
  6
CONTINUOUS
 62
     7
 10
65.036439220953071
 20
25.319914804304151
 30
0.0
  0
VERTEX
  5
DC7
  8
DATA
  6
CONTINUOUS
 62
     7
 10
64.932586125376531
 20
25.210627782995179
 30
0.0
  0
VERTEX
  5
DC8
  8
DATA
  6
CONTINUOUS
 62
     7
 10
64.837691302295624
 20
25.110767759617239
 30
0.0
  0
VERTEX
  5
DC9
  8
DATA
  6
CONTINUOUS
 62
     7
 10
64.751754751710351
 20
25.02033473417033
 30
0.0
  0
VERTEX
  5
DCA
  8
DATA
  6
CONTINUOUS
 62
     7
 10
64.751754751710351
 20
25.02033473417033
 30
0.0
  0
VERTEX
  5
DCB
  8
DATA
  6
CONTINUOUS
 62
     7
 10
64.674493972666312
 20
24.939031424347569
 30
0.0
  0
VERTEX
  5
DCC
  8
DATA
  6
CONTINUOUS
 62
     7
 10
64.60562646420918
 20
24.86656054784207
 30
0.0
  0
VERTEX
  5
DCD
  8
DATA
  6
CONTINUOUS
 62
     7
 10
64.545152226338899
 20
24.802922104653831
 30
0.0
  0
VERTEX
  5
DCE
  8
DATA
  6
CONTINUOUS
 62
     7
 10
64.493071259055526
 20
24.748116094782851
 30
0.0
  0
VERTEX
  5
DCF
  8
DATA
  6
CONTINUOUS
 62
     7
 10
64.449383562359031
 20
24.702142518229131
 30
0.0
  0
VERTEX
  5
DD0
  8
DATA
  6
CONTINUOUS
 62
     7
 10
64.414089136249402
 20
24.665001374992681
 30
0.0
  0
VERTEX
  5
DD1
  8
DATA
  6
CONTINUOUS
 62
     7
 10
64.387187980726651
 20
24.63669266507349
 30
0.0
  0
VERTEX
  5
DD2
  8
DATA
  6
CONTINUOUS
 62
     7
 10
64.368680095790822
 20
24.617216388471562
 30
0.0
  0
VERTEX
  5
DD3
  8
DATA
  6
CONTINUOUS
 62
     7
 10
64.368680095790822
 20
24.617216388471562
 30
0.0
  0
SEQEND
  5
DD4
  8
DATA
  6
CONTINUOUS
 62
     7
  0
POLYLINE
  5
444
  8
DATA
  6
CONTINUOUS
 62
     7
 66
     1
 10
0.0
 20
0.0
 30
0.0
  0
VERTEX
  5
DD5
  8
DATA
  6
CONTINUOUS
 62
     7
 10
68.91716834630148
 20
29.40356929434461
 30
0.0
  0
VERTEX
  5
DD6
  8
DATA
  6
CONTINUOUS
 62
     7
 10
68.911794190995522
 20
29.398040726689381
 30
0.0
  0
VERTEX
  5
DD7
  8
DATA
  6
CONTINUOUS
 62
     7
 10
68.911794190995522
 20
29.398040726689381
 30
0.0
  0
SEQEND
  5
DD8
  8
DATA
  6
CONTINUOUS
 62
     7
  0
POLYLINE
  5
449
  8
DATA
  6
CONTINUOUS
 62
     7
 66
     1
 10
0.0
 20
0.0
 30
0.0
 70
   128
  0
VERTEX
  5
DD9
  8
DATA
  6
CONTINUOUS
 62
     7
 10
70.040221475878127
 20
29.863288163795009
 30
0.0
  0
VERTEX
  5
DDA
  8
DATA
  6
CONTINUOUS
 62
     7
 10
69.968462502906462
 20
29.863545704982752
 30
0.0
  0
VERTEX
  5
DDB
  8
DATA
  6
CONTINUOUS
 62
     7
 10
69.896061544632673
 20
29.859730197651
 30
0.0
  0
VERTEX
  5
DDC
  8
DATA
  6
CONTINUOUS
 62
     7
 10
69.823018601056773
 20
29.851841641799759
 30
0.0
  0
VERTEX
  5
DDD
  8
DATA
  6
CONTINUOUS
 62
     7
 10
69.74933367217875
 20
29.839880037429051
 30
0.0
  0
VERTEX
  5
DDE
  8
DATA
  6
CONTINUOUS
 62
     7
 10
69.675006757998574
 20
29.823845384538849
 30
0.0
  0
VERTEX
  5
DDF
  8
DATA
  6
CONTINUOUS
 62
     7
 10
69.600037858516316
 20
29.803737683129171
 30
0.0
  0
VERTEX
  5
DE0
  8
DATA
  6
CONTINUOUS
 62
     7
 10
69.524426973731934
 20
29.77955693320002
 30
0.0
  0
VERTEX
  5
DE1
  8
DATA
  6
CONTINUOUS
 62
     7
 10
69.448174103645442
 20
29.751303134751371
 30
0.0
  0
VERTEX
  5
DE2
  8
DATA
  6
CONTINUOUS
 62
     7
 10
69.448174103645442
 20
29.751303134751371
 30
0.0
  0
VERTEX
  5
DE3
  8
DATA
  6
CONTINUOUS
 62
     7
 10
69.372875008791567
 20
29.719365761125179
 30
0.0
  0
VERTEX
  5
DE4
  8
DATA
  6
CONTINUOUS
 62
     7
 10
69.300125449705092
 20
29.684134285663369
 30
0.0
  0
VERTEX
  5
DE5
  8
DATA
  6
CONTINUOUS
 62
     7
 10
69.229925426386018
 20
29.645608708365948
 30
0.0
  0
VERTEX
  5
DE6
  8
DATA
  6
CONTINUOUS
 62
     7
 10
69.162274938834315
 20
29.603789029232921
 30
0.0
  0
VERTEX
  5
DE7
  8
DATA
  6
CONTINUOUS
 62
     7
 10
69.097173987050013
 20
29.558675248264251
 30
0.0
  0
VERTEX
  5
DE8
  8
DATA
  6
CONTINUOUS
 62
     7
 10
69.034622571033125
 20
29.510267365459988
 30
0.0
  0
VERTEX
  5
DE9
  8
DATA
  6
CONTINUOUS
 62
     7
 10
68.97462069078361
 20
29.458565380820112
 30
0.0
  0
VERTEX
  5
DEA
  8
DATA
  6
CONTINUOUS
 62
     7
 10
68.91716834630148
 20
29.40356929434461
 30
0.0
  0
VERTEX
  5
DEB
  8
DATA
  6
CONTINUOUS
 62
     7
 10
68.91716834630148
 20
29.40356929434461
 30
0.0
  0
SEQEND
  5
DEC
  8
DATA
  6
CONTINUOUS
 62
     7
  0
LINE
  5
45E
  8
DATA
  6
CONTINUOUS
 62
     7
 10
70.047615102501425
 20
29.863288163795009
 30
0.0
 11
70.040221475878127
 21
29.863288163795009
 31
0.0
  0
POLYLINE
  5
45F
  8
DATA
  6
CONTINUOUS
 62
     7
 66
     1
 10
0.0
 20
0.0
 30
0.0
 70
   128
  0
VERTEX
  5
DED
  8
DATA
  6
CONTINUOUS
 62
     7
 10
81.758829014948603
 20
29.863457714611069
 30
0.0
  0
VERTEX
  5
DEE
  8
DATA
  6
CONTINUOUS
 62
     7
 10
81.713100332876351
 20
29.863457052566741
 30
0.0
  0
VERTEX
  5
DEF
  8
DATA
  6
CONTINUOUS
 62
     7
 10
81.653746481126078
 20
29.863456193262149
 30
0.0
  0
VERTEX
  5
DF0
  8
DATA
  6
CONTINUOUS
 62
     7
 10
81.580767459697839
 20
29.863455136697318
 30
0.0
  0
VERTEX
  5
DF1
  8
DATA
  6
CONTINUOUS
 62
     7
 10
81.494163268591578
 20
29.863453882872228
 30
0.0
  0
VERTEX
  5
DF2
  8
DATA
  6
CONTINUOUS
 62
     7
 10
81.393933907807366
 20
29.863452431786889
 30
0.0
  0
VERTEX
  5
DF3
  8
DATA
  6
CONTINUOUS
 62
     7
 10
81.280079377345118
 20
29.863450783441291
 30
0.0
  0
VERTEX
  5
DF4
  8
DATA
  6
CONTINUOUS
 62
     7
 10
81.152599677204861
 20
29.86344893783545
 30
0.0
  0
VERTEX
  5
DF5
  8
DATA
  6
CONTINUOUS
 62
     7
 10
81.011494807386597
 20
29.86344689496935
 30
0.0
  0
VERTEX
  5
DF6
  8
DATA
  6
CONTINUOUS
 62
     7
 10
81.011494807386597
 20
29.86344689496935
 30
0.0
  0
VERTEX
  5
DF7
  8
DATA
  6
CONTINUOUS
 62
     7
 10
80.862636806989684
 20
29.863444739856192
 30
0.0
  0
VERTEX
  5
DF8
  8
DATA
  6
CONTINUOUS
 62
     7
 10
80.711897715113494
 20
29.863442557509181
 30
0.0
  0
VERTEX
  5
DF9
  8
DATA
  6
CONTINUOUS
 62
     7
 10
80.559277531757942
 20
29.863440347928311
 30
0.0
  0
VERTEX
  5
DFA
  8
DATA
  6
CONTINUOUS
 62
     7
 10
80.404776256923071
 20
29.86343811111357
 30
0.0
  0
VERTEX
  5
DFB
  8
DATA
  6
CONTINUOUS
 62
     7
 10
80.248393890608895
 20
29.863435847064981
 30
0.0
  0
VERTEX
  5
DFC
  8
DATA
  6
CONTINUOUS
 62
     7
 10
80.090130432815414
 20
29.863433555782532
 30
0.0
  0
VERTEX
  5
DFD
  8
DATA
  6
CONTINUOUS
 62
     7
 10
79.929985883542614
 20
29.863431237266209
 30
0.0
  0
VERTEX
  5
DFE
  8
DATA
  6
CONTINUOUS
 62
     7
 10
79.76796024279048
 20
29.863428891516051
 30
0.0
  0
VERTEX
  5
DFF
  8
DATA
  6
CONTINUOUS
 62
     7
 10
79.76796024279048
 20
29.863428891516051
 30
0.0
  0
VERTEX
  5
E00
  8
DATA
  6
CONTINUOUS
 62
     7
 10
79.596739354629122
 20
29.863426412640319
 30
0.0
  0
VERTEX
  5
E01
  8
DATA
  6
CONTINUOUS
 62
     7
 10
79.409009063128607
 20
29.86342369474734
 30
0.0
  0
VERTEX
  5
E02
  8
DATA
  6
CONTINUOUS
 62
     7
 10
79.20476936828895
 20
29.86342073783711
 30
0.0
  0
VERTEX
  5
E03
  8
DATA
  6
CONTINUOUS
 62
     7
 10
78.984020270110165
 20
29.863417541909641
 30
0.0
  0
VERTEX
  5
E04
  8
DATA
  6
CONTINUOUS
 62
     7
 10
78.746761768592165
 20
29.86341410696491
 30
0.0
  0
VERTEX
  5
E05
  8
DATA
  6
CONTINUOUS
 62
     7
 10
78.492993863735123
 20
29.86341043300293
 30
0.0
  0
VERTEX
  5
E06
  8
DATA
  6
CONTINUOUS
 62
     7
 10
78.222716555538824
 20
29.863406520023691
 30
0.0
  0
VERTEX
  5
E07
  8
DATA
  6
CONTINUOUS
 62
     7
 10
77.935929844003454
 20
29.86340236802722
 30
0.0
  0
VERTEX
  5
E08
  8
DATA
  6
CONTINUOUS
 62
     7
 10
77.935929844003454
 20
29.86340236802722
 30
0.0
  0
VERTEX
  5
E09
  8
DATA
  6
CONTINUOUS
 62
     7
 10
77.639623904304017
 20
29.863398078214729
 30
0.0
  0
VERTEX
  5
E0A
  8
DATA
  6
CONTINUOUS
 62
     7
 10
77.340788911615633
 20
29.863393751787491
 30
0.0
  0
VERTEX
  5
E0B
  8
DATA
  6
CONTINUOUS
 62
     7
 10
77.039424865938258
 20
29.86338938874551
 30
0.0
  0
VERTEX
  5
E0C
  8
DATA
  6
CONTINUOUS
 62
     7
 10
76.735531767271993
 20
29.86338498908875
 30
0.0
  0
VERTEX
  5
E0D
  8
DATA
  6
CONTINUOUS
 62
     7
 10
76.429109615616781
 20
29.863380552817251
 30
0.0
  0
VERTEX
  5
E0E
  8
DATA
  6
CONTINUOUS
 62
     7
 10
76.120158410972621
 20
29.86337607993098
 30
0.0
  0
VERTEX
  5
E0F
  8
DATA
  6
CONTINUOUS
 62
     7
 10
75.808678153339542
 20
29.863371570429969
 30
0.0
  0
VERTEX
  5
E10
  8
DATA
  6
CONTINUOUS
 62
     7
 10
75.494668842717459
 20
29.86336702431419
 30
0.0
  0
VERTEX
  5
E11
  8
DATA
  6
CONTINUOUS
 62
     7
 10
75.494668842717459
 20
29.86336702431419
 30
0.0
  0
VERTEX
  5
E12
  8
DATA
  6
CONTINUOUS
 62
     7
 10
75.180673457546135
 20
29.86336247840001
 30
0.0
  0
VERTEX
  5
E13
  8
DATA
  6
CONTINUOUS
 62
     7
 10
74.869234976265147
 20
29.863357969503781
 30
0.0
  0
VERTEX
  5
E14
  8
DATA
  6
CONTINUOUS
 62
     7
 10
74.560353398874511
 20
29.863353497625489
 30
0.0
  0
VERTEX
  5
E15
  8
DATA
  6
CONTINUOUS
 62
     7
 10
74.254028725374198
 20
29.863349062765138
 30
0.0
  0
VERTEX
  5
E16
  8
DATA
  6
CONTINUOUS
 62
     7
 10
73.950260955764264
 20
29.863344664922749
 30
0.0
  0
VERTEX
  5
E17
  8
DATA
  6
CONTINUOUS
 62
     7
 10
73.649050090044653
 20
29.863340304098291
 30
0.0
  0
VERTEX
  5
E18
  8
DATA
  6
CONTINUOUS
 62
     7
 10
73.350396128215451
 20
29.863335980291769
 30
0.0
  0
VERTEX
  5
E19
  8
DATA
  6
CONTINUOUS
 62
     7
 10
73.054299070276542
 20
29.863331693503209
 30
0.0
  0
VERTEX
  5
E1A
  8
DATA
  6
CONTINUOUS
 62
     7
 10
73.054299070276542
 20
29.863331693503209
 30
0.0
  0
VERTEX
  5
E1B
  8
DATA
  6
CONTINUOUS
 62
     7
 10
72.764782848180218
 20
29.863327501989669
 30
0.0
  0
VERTEX
  5
E1C
  8
DATA
  6
CONTINUOUS
 62
     7
 10
72.485871393878682
 20
29.86332346400825
 30
0.0
  0
VERTEX
  5
E1D
  8
DATA
  6
CONTINUOUS
 62
     7
 10
72.217564707371892
 20
29.863319579558961
 30
0.0
  0
VERTEX
  5
E1E
  8
DATA
  6
CONTINUOUS
 62
     7
 10
71.95986278865989
 20
29.86331584864179
 30
0.0
  0
VERTEX
  5
E1F
  8
DATA
  6
CONTINUOUS
 62
     7
 10
71.712765637742649
 20
29.863312271256731
 30
0.0
  0
VERTEX
  5
E20
  8
DATA
  6
CONTINUOUS
 62
     7
 10
71.476273254620196
 20
29.8633088474038
 30
0.0
  0
VERTEX
  5
E21
  8
DATA
  6
CONTINUOUS
 62
     7
 10
71.250385639292503
 20
29.863305577082979
 30
0.0
  0
VERTEX
  5
E22
  8
DATA
  6
CONTINUOUS
 62
     7
 10
71.03510279175957
 20
29.863302460294278
 30
0.0
  0
VERTEX
  5
E23
  8
DATA
  6
CONTINUOUS
 62
     7
 10
71.03510279175957
 20
29.863302460294278
 30
0.0
  0
VERTEX
  5
E24
  8
DATA
  6
CONTINUOUS
 62
     7
 10
70.835940390933843
 20
29.863299576891681
 30
0.0
  0
VERTEX
  5
E25
  8
DATA
  6
CONTINUOUS
 62
     7
 10
70.658414115727652
 20
29.86329700672913
 30
0.0
  0
VERTEX
  5
E26
  8
DATA
  6
CONTINUOUS
 62
     7
 10
70.502523966141041
 20
29.863294749806641
 30
0.0
  0
VERTEX
  5
E27
  8
DATA
  6
CONTINUOUS
 62
     7
 10
70.368269942173981
 20
29.8632928061242
 30
0.0
  0
VERTEX
  5
E28
  8
DATA
  6
CONTINUOUS
 62
     7
 10
70.255652043826501
 20
29.86329117568182
 30
0.0
  0
VERTEX
  5
E29
  8
DATA
  6
CONTINUOUS
 62
     7
 10
70.164670271098572
 20
29.86328985847949
 30
0.0
  0
VERTEX
  5
E2A
  8
DATA
  6
CONTINUOUS
 62
     7
 10
70.095324623990223
 20
29.863288854517229
 30
0.0
  0
VERTEX
  5
E2B
  8
DATA
  6
CONTINUOUS
 62
     7
 10
70.047615102501425
 20
29.863288163795009
 30
0.0
  0
VERTEX
  5
E2C
  8
DATA
  6
CONTINUOUS
 62
     7
 10
70.047615102501425
 20
29.863288163795009
 30
0.0
  0
SEQEND
  5
E2D
  8
DATA
  6
CONTINUOUS
 62
     7
  0
POLYLINE
  5
4A1
  8
DATA
  6
CONTINUOUS
 62
     7
 66
     1
 10
0.0
 20
0.0
 30
0.0
  0
VERTEX
  5
E2E
  8
DATA
  6
CONTINUOUS
 62
     7
 10
81.774984785489806
 20
29.863457714611069
 30
0.0
  0
VERTEX
  5
E2F
  8
DATA
  6
CONTINUOUS
 62
     7
 10
81.758829014948603
 20
29.863457714611069
 30
0.0
  0
VERTEX
  5
E30
  8
DATA
  6
CONTINUOUS
 62
     7
 10
81.758829014948603
 20
29.863457714611069
 30
0.0
  0
SEQEND
  5
E31
  8
DATA
  6
CONTINUOUS
 62
     7
  0
POLYLINE
  5
4A6
  8
DATA
  6
CONTINUOUS
 62
     7
 66
     1
 10
0.0
 20
0.0
 30
0.0
 70
   128
  0
VERTEX
  5
E32
  8
DATA
  6
CONTINUOUS
 62
     7
 10
82.884822034554816
 20
29.408564988008148
 30
0.0
  0
VERTEX
  5
E33
  8
DATA
  6
CONTINUOUS
 62
     7
 10
82.771976168869074
 20
29.509634301017041
 30
0.0
  0
VERTEX
  5
E34
  8
DATA
  6
CONTINUOUS
 62
     7
 10
82.65173493448404
 20
29.598072836259199
 30
0.0
  0
VERTEX
  5
E35
  8
DATA
  6
CONTINUOUS
 62
     7
 10
82.524098331399813
 20
29.673880593734651
 30
0.0
  0
VERTEX
  5
E36
  8
DATA
  6
CONTINUOUS
 62
     7
 10
82.389066359616294
 20
29.737057573443369
 30
0.0
  0
VERTEX
  5
E37
  8
DATA
  6
CONTINUOUS
 62
     7
 10
82.246639019133553
 20
29.787603775385382
 30
0.0
  0
VERTEX
  5
E38
  8
DATA
  6
CONTINUOUS
 62
     7
 10
82.096816309951535
 20
29.825519199560659
 30
0.0
  0
VERTEX
  5
E39
  8
DATA
  6
CONTINUOUS
 62
     7
 10
81.939598232070296
 20
29.850803845969232
 30
0.0
  0
VERTEX
  5
E3A
  8
DATA
  6
CONTINUOUS
 62
     7
 10
81.774984785489806
 20
29.863457714611069
 30
0.0
  0
VERTEX
  5
E3B
  8
DATA
  6
CONTINUOUS
 62
     7
 10
81.774984785489806
 20
29.863457714611069
 30
0.0
  0
SEQEND
  5
E3C
  8
DATA
  6
CONTINUOUS
 62
     7
  0
LINE
  5
4B2
  8
DATA
  6
CONTINUOUS
 62
     7
 10
82.894734701861196
 20
29.398379828321481
 30
0.0
 11
82.884822034554816
 21
29.408564988008148
 31
0.0
  0
POLYLINE
  5
4B3
  8
DATA
  6
CONTINUOUS
 62
     7
 66
     1
 10
0.0
 20
0.0
 30
0.0
 70
   128
  0
VERTEX
  5
E3D
  8
DATA
  6
CONTINUOUS
 62
     7
 10
87.437933572475316
 20
24.617555490103669
 30
0.0
  0
VERTEX
  5
E3E
  8
DATA
  6
CONTINUOUS
 62
     7
 10
87.400646265334714
 20
24.656793056091988
 30
0.0
  0
VERTEX
  5
E3F
  8
DATA
  6
CONTINUOUS
 62
     7
 10
87.348798465766436
 20
24.71135268007453
 30
0.0
  0
VERTEX
  5
E40
  8
DATA
  6
CONTINUOUS
 62
     7
 10
87.282390173770452
 20
24.781234362051318
 30
0.0
  0
VERTEX
  5
E41
  8
DATA
  6
CONTINUOUS
 62
     7
 10
87.201421389346734
 20
24.86643810202235
 30
0.0
  0
VERTEX
  5
E42
  8
DATA
  6
CONTINUOUS
 62
     7
 10
87.105892112495326
 20
24.966963899987611
 30
0.0
  0
VERTEX
  5
E43
  8
DATA
  6
CONTINUOUS
 62
     7
 10
86.995802343216184
 20
25.08281175594713
 30
0.0
  0
VERTEX
  5
E44
  8
DATA
  6
CONTINUOUS
 62
     7
 10
86.871152081509308
 20
25.213981669900871
 30
0.0
  0
VERTEX
  5
E45
  8
DATA
  6
CONTINUOUS
 62
     7
 10
86.731941327374727
 20
25.360473641848849
 30
0.0
  0
VERTEX
  5
E46
  8
DATA
  6
CONTINUOUS
 62
     7
 10
86.731941327374727
 20
25.360473641848849
 30
0.0
  0
VERTEX
  5
E47
  8
DATA
  6
CONTINUOUS
 62
     7
 10
86.584314503066793
 20
25.515821874388269
 30
0.0
  0
VERTEX
  5
E48
  8
DATA
  6
CONTINUOUS
 62
     7
 10
86.434416030839884
 20
25.673560570116329
 30
0.0
  0
VERTEX
  5
E49
  8
DATA
  6
CONTINUOUS
 62
     7
 10
86.282245910694002
 20
25.833689729033029
 30
0.0
  0
VERTEX
  5
E4A
  8
DATA
  6
CONTINUOUS
 62
     7
 10
86.127804142629159
 20
25.996209351138369
 30
0.0
  0
VERTEX
  5
E4B
  8
DATA
  6
CONTINUOUS
 62
     7
 10
85.971090726645343
 20
26.161119436432351
 30
0.0
  0
VERTEX
  5
E4C
  8
DATA
  6
CONTINUOUS
 62
     7
 10
85.812105662742553
 20
26.328419984914969
 30
0.0
  0
VERTEX
  5
E4D
  8
DATA
  6
CONTINUOUS
 62
     7
 10
85.650848950920746
 20
26.498110996586231
 30
0.0
  0
VERTEX
  5
E4E
  8
DATA
  6
CONTINUOUS
 62
     7
 10
85.487320591180023
 20
26.670192471446121
 30
0.0
  0
VERTEX
  5
E4F
  8
DATA
  6
CONTINUOUS
 62
     7
 10
85.487320591180023
 20
26.670192471446121
 30
0.0
  0
VERTEX
  5
E50
  8
DATA
  6
CONTINUOUS
 62
     7
 10
85.323377515734862
 20
26.842710353117521
 30
0.0
  0
VERTEX
  5
E51
  8
DATA
  6
CONTINUOUS
 62
     7
 10
85.160876656799843
 20
27.013710585223311
 30
0.0
  0
VERTEX
  5
E52
  8
DATA
  6
CONTINUOUS
 62
     7
 10
84.999818014374938
 20
27.183193167763481
 30
0.0
  0
VERTEX
  5
E53
  8
DATA
  6
CONTINUOUS
 62
     7
 10
84.840201588460161
 20
27.351158100738029
 30
0.0
  0
VERTEX
  5
E54
  8
DATA
  6
CONTINUOUS
 62
     7
 10
84.682027379055484
 20
27.517605384146972
 30
0.0
  0
VERTEX
  5
E55
  8
DATA
  6
CONTINUOUS
 62
     7
 10
84.525295386160991
 20
27.682535017990279
 30
0.0
  0
VERTEX
  5
E56
  8
DATA
  6
CONTINUOUS
 62
     7
 10
84.370005609776612
 20
27.84594700226797
 30
0.0
  0
VERTEX
  5
E57
  8
DATA
  6
CONTINUOUS
 62
     7
 10
84.216158049902347
 20
28.007841336980061
 30
0.0
  0
VERTEX
  5
E58
  8
DATA
  6
CONTINUOUS
 62
     7
 10
84.216158049902347
 20
28.007841336980061
 30
0.0
  0
VERTEX
  5
E59
  8
DATA
  6
CONTINUOUS
 62
     7
 10
84.067510818112495
 20
28.164263347943852
 30
0.0
  0
VERTEX
  5
E5A
  8
DATA
  6
CONTINUOUS
 62
     7
 10
83.927822025981499
 20
28.311258360976701
 30
0.0
  0
VERTEX
  5
E5B
  8
DATA
  6
CONTINUOUS
 62
     7
 10
83.797091673509257
 20
28.448826376078621
 30
0.0
  0
VERTEX
  5
E5C
  8
DATA
  6
CONTINUOUS
 62
     7
 10
83.675319760695785
 20
28.57696739324961
 30
0.0
  0
VERTEX
  5
E5D
  8
DATA
  6
CONTINUOUS
 62
     7
 10
83.562506287541083
 20
28.695681412489641
 30
0.0
  0
VERTEX
  5
E5E
  8
DATA
  6
CONTINUOUS
 62
     7
 10
83.458651254045193
 20
28.804968433798749
 30
0.0
  0
VERTEX
  5
E5F
  8
DATA
  6
CONTINUOUS
 62
     7
 10
83.363754660208016
 20
28.904828457176912
 30
0.0
  0
VERTEX
  5
E60
  8
DATA
  6
CONTINUOUS
 62
     7
 10
83.277816506029694
 20
28.99526148262413
 30
0.0
  0
VERTEX
  5
E61
  8
DATA
  6
CONTINUOUS
 62
     7
 10
83.277816506029694
 20
28.99526148262413
 30
0.0
  0
VERTEX
  5
E62
  8
DATA
  6
CONTINUOUS
 62
     7
 10
83.200554285284184
 20
29.07656479244719
 30
0.0
  0
VERTEX
  5
E63
  8
DATA
  6
CONTINUOUS
 62
     7
 10
83.131685491745685
 20
29.149035668952841
 30
0.0
  0
VERTEX
  5
E64
  8
DATA
  6
CONTINUOUS
 62
     7
 10
83.071210125414197
 20
29.212674112141109
 30
0.0
  0
VERTEX
  5
E65
  8
DATA
  6
CONTINUOUS
 62
     7
 10
83.019128186289649
 20
29.267480122011971
 30
0.0
  0
VERTEX
  5
E66
  8
DATA
  6
CONTINUOUS
 62
     7
 10
82.975439674372083
 20
29.31345369856545
 30
0.0
  0
VERTEX
  5
E67
  8
DATA
  6
CONTINUOUS
 62
     7
 10
82.940144589661472
 20
29.35059484180152
 30
0.0
  0
VERTEX
  5
E68
  8
DATA
  6
CONTINUOUS
 62
     7
 10
82.913242932157857
 20
29.3789035517202
 30
0.0
  0
VERTEX
  5
E69
  8
DATA
  6
CONTINUOUS
 62
     7
 10
82.894734701861196
 20
29.398379828321481
 30
0.0
  0
VERTEX
  5
E6A
  8
DATA
  6
CONTINUOUS
 62
     7
 10
82.894734701861196
 20
29.398379828321481
 30
0.0
  0
SEQEND
  5
E6B
  8
DATA
  6
CONTINUOUS
 62
     7
  0
LINE
  5
4E3
  8
DATA
  6
CONTINUOUS
 62
     7
 10
76.574060779482423
 20
21.344553208182809
 30
0.0
 11
76.573960779482661
 21
26.57060320818448
 31
0.0
  0
LINE
  5
4E4
  8
DATA
  6
CONTINUOUS
 62
     7
 10
75.23281077948235
 20
21.344378208183251
 30
0.0
 11
76.574060779482423
 21
21.344553208182809
 31
0.0
  0
LINE
  5
4E5
  8
DATA
  6
CONTINUOUS
 62
     7
 10
75.232660779482714
 20
26.57060320818448
 30
0.0
 11
75.23281077948235
 21
21.344378208183251
 31
0.0
  0
LINE
  5
4E6
  8
DATA
  6
CONTINUOUS
 62
     7
 10
76.573960779482661
 20
26.57060320818448
 30
0.0
 11
75.232660779482714
 21
26.57060320818448
 31
0.0
  0
LINE
  5
4E7
  8
DATA
  6
CONTINUOUS
 62
     7
 10
69.195885779483035
 20
17.215978208181369
 30
0.0
 11
69.195710779481999
 21
22.442053208183001
 31
0.0
  0
LINE
  5
4E8
  8
DATA
  6
CONTINUOUS
 62
     7
 10
67.854635779482862
 20
17.215978208181369
 30
0.0
 11
69.195885779483035
 21
17.215978208181369
 31
0.0
  0
LINE
  5
4E9
  8
DATA
  6
CONTINUOUS
 62
     7
 10
67.854560779483052
 20
22.442053208183001
 30
0.0
 11
67.854635779482862
 21
17.215978208181369
 31
0.0
  0
LINE
  5
4EA
  8
DATA
  6
CONTINUOUS
 62
     7
 10
69.195710779481999
 20
22.442053208183001
 30
0.0
 11
67.854560779483052
 21
22.442053208183001
 31
0.0
  0
LINE
  5
4EB
  8
DATA
  6
CONTINUOUS
 62
     7
 10
83.952310779483184
 20
17.216153208183769
 30
0.0
 11
83.952135779482276
 21
22.44222820818257
 31
0.0
  0
LINE
  5
4EC
  8
DATA
  6
CONTINUOUS
 62
     7
 10
82.611085779482977
 20
17.216153208183769
 30
0.0
 11
83.952310779483184
 21
17.216153208183769
 31
0.0
  0
LINE
  5
4ED
  8
DATA
  6
CONTINUOUS
 62
     7
 10
82.610985779481794
 20
22.44222820818257
 30
0.0
 11
82.611085779482977
 21
17.216153208183769
 31
0.0
  0
LINE
  5
4EE
  8
DATA
  6
CONTINUOUS
 62
     7
 10
83.952135779482276
 20
22.44222820818257
 30
0.0
 11
82.610985779481794
 21
22.44222820818257
 31
0.0
  0
TEXT
  5
4EF
  8
DATA
 62
     7
 10
82.331037269880426
 20
8.7437077793335565
 30
0.0
 40
2.1717881944444439
  1
12 WATTS
 50
180.0
 41
0.8
 11
82.331037269880426
 21
6.5719195848891108
 31
0.0
 73
     3
  0
TEXT
  5
4F0
  8
DATA
 62
     7
 10
84.874797993921646
 20
37.327580668950731
 30
0.0
 40
2.1717881944444439
  1
100V～50/60Hz
 50
180.0
 41
0.8
 11
84.874797993921646
 21
35.155792474506292
 31
0.0
 73
     3
  0
TEXT
  5
4F1
  8
DATA
 62
     7
 10
82.998819618164703
 20
40.75063408853083
 30
0.0
 40
2.1717881944444439
  1
120～60Hz
 50
180.0
 41
0.8
 11
82.998819618164703
 21
38.578845894086392
 31
0.0
 73
     3
  0
ARC
  5
4F2
  8
DATA
  6
CONTINUOUS
 62
     7
 10
98.460358079702928
 20
38.43692551855208
 30
0.0
 40
4.8384615384617176
 50
316.99713135190598
 51
43.002868648094008
  0
LINE
  5
4F3
  8
DATA
  6
CONTINUOUS
 62
     7
 10
101.9988196181647
 20
35.136925518552069
 30
0.0
 11
100.9988196181647
 21
35.136925518552069
 31
0.0
  0
LINE
  5
4F4
  8
DATA
  6
CONTINUOUS
 62
     7
 10
101.9988196181647
 20
41.736925518552091
 30
0.0
 11
100.9988196181647
 21
41.736925518552091
 31
0.0
  0
ARC
  5
4F5
  8
DATA
  6
CONTINUOUS
 62
     7
 10
-334.46271884337278
 20
38.43692551855208
 30
0.0
 40
4.8384615384617176
 50
136.99713135190601
 51
223.00286864809399
  0
LINE
  5
4F6
  8
DATA
  6
CONTINUOUS
 62
     7
 10
-338.00118038183462
 20
35.136925518552069
 30
0.0
 11
-337.0011803818345
 21
35.136925518552069
 31
0.0
  0
LINE
  5
4F7
  8
DATA
  6
CONTINUOUS
 62
     7
 10
-338.00118038183462
 20
41.736925518552091
 30
0.0
 11
-337.0011803818345
 21
41.736925518552091
 31
0.0
  0
LINE
  5
4F8
  8
DATA
  6
CONTINUOUS
 62
     7
 10
223.0569666364668
 20
-395.85967721775569
 30
0.0
 11
223.0569666364668
 21
-440.25967721775561
 31
0.0
  0
CIRCLE
  5
4F9
  8
DATA
  6
CONTINUOUS
 62
     7
 10
240.0569666364668
 20
-435.25967721775561
 30
0.0
 40
3.3499999999999939
  0
LINE
  5
4FA
  8
DATA
  6
CONTINUOUS
 62
     7
 10
239.40696663646679
 20
-433.10967721775569
 30
0.0
 11
240.7069666364668
 21
-433.10967721775569
 31
0.0
  0
LINE
  5
4FB
  8
DATA
  6
CONTINUOUS
 62
     7
 10
239.40696663646679
 20
-437.40967721775559
 30
0.0
 11
240.7069666364668
 21
-437.40967721775559
 31
0.0
  0
LINE
  5
4FC
  8
DATA
  6
CONTINUOUS
 62
     7
 10
237.90696663646679
 20
-434.60967721775557
 30
0.0
 11
237.90696663646679
 21
-435.90967721775559
 31
0.0
  0
LINE
  5
4FD
  8
DATA
  6
CONTINUOUS
 62
     7
 10
242.2069666364668
 20
-434.60967721775557
 30
0.0
 11
242.2069666364668
 21
-435.90967721775559
 31
0.0
  0
LINE
  5
4FE
  8
DATA
  6
CONTINUOUS
 62
     7
 10
239.40696663646679
 20
-433.10967721775569
 30
0.0
 11
239.40696663646679
 21
-434.31099391969281
 31
0.0
  0
LINE
  5
4FF
  8
DATA
  6
CONTINUOUS
 62
     7
 10
240.7069666364668
 20
-433.10967721775569
 30
0.0
 11
240.7069666364668
 21
-434.31099391969281
 31
0.0
  0
LINE
  5
500
  8
DATA
  6
CONTINUOUS
 62
     7
 10
242.2069666364668
 20
-434.60967721775557
 30
0.0
 11
241.0056499345209
 21
-434.60967721775557
 31
0.0
  0
LINE
  5
501
  8
DATA
  6
CONTINUOUS
 62
     7
 10
242.2069666364668
 20
-435.90967721775559
 30
0.0
 11
241.0056499345209
 21
-435.90967721775559
 31
0.0
  0
LINE
  5
502
  8
DATA
  6
CONTINUOUS
 62
     7
 10
237.90696663646679
 20
-434.60967721775557
 30
0.0
 11
239.10828333841269
 21
-434.60967721775557
 31
0.0
  0
LINE
  5
503
  8
DATA
  6
CONTINUOUS
 62
     7
 10
240.7069666364668
 20
-437.40967721775559
 30
0.0
 11
240.7069666364668
 21
-436.20836051581853
 31
0.0
  0
LINE
  5
504
  8
DATA
  6
CONTINUOUS
 62
     7
 10
239.40696663646679
 20
-437.40967721775559
 30
0.0
 11
239.40696663646679
 21
-436.20836051581853
 31
0.0
  0
LINE
  5
505
  8
DATA
  6
CONTINUOUS
 62
     7
 10
237.90696663646679
 20
-435.90967721775559
 30
0.0
 11
239.10828333841269
 21
-435.90967721775559
 31
0.0
  0
ARC
  5
506
  8
DATA
  6
CONTINUOUS
 62
     7
 10
240.0569666364668
 20
-435.25967721775561
 30
0.0
 40
1.15000000000292
 50
124.4173887100967
 51
145.5826112896566
  0
ARC
  5
507
  8
DATA
  6
CONTINUOUS
 62
     7
 10
240.0569666364668
 20
-435.25967721775561
 30
0.0
 40
1.1500000000101169
 50
34.417388710342003
 51
55.582611289904293
  0
ARC
  5
508
  8
DATA
  6
CONTINUOUS
 62
     7
 10
240.0569666364668
 20
-435.25967721775561
 30
0.0
 40
1.15000000000292
 50
304.41738871009687
 51
325.58261128965978
  0
ARC
  5
509
  8
DATA
  6
CONTINUOUS
 62
     7
 10
240.0569666364668
 20
-435.25967721775561
 30
0.0
 40
1.1500000000101409
 50
214.41738871034121
 51
235.5826112899054
  0
CIRCLE
  5
50A
  8
DATA
  6
CONTINUOUS
 62
     7
 10
352.05696663646751
 20
-435.25967721775561
 30
0.0
 40
3.3500000000000218
  0
LINE
  5
50B
  8
DATA
  6
CONTINUOUS
 62
     7
 10
351.40696663646759
 20
-433.10967721775569
 30
0.0
 11
352.7069666364676
 21
-433.10967721775569
 31
0.0
  0
LINE
  5
50C
  8
DATA
  6
CONTINUOUS
 62
     7
 10
351.40696663646759
 20
-437.40967721775559
 30
0.0
 11
352.7069666364676
 21
-437.40967721775559
 31
0.0
  0
LINE
  5
50D
  8
DATA
  6
CONTINUOUS
 62
     7
 10
349.90696663646759
 20
-434.60967721775557
 30
0.0
 11
349.90696663646759
 21
-435.90967721775559
 31
0.0
  0
LINE
  5
50E
  8
DATA
  6
CONTINUOUS
 62
     7
 10
354.2069666364676
 20
-434.60967721775557
 30
0.0
 11
354.2069666364676
 21
-435.90967721775559
 31
0.0
  0
LINE
  5
50F
  8
DATA
  6
CONTINUOUS
 62
     7
 10
351.40696663646759
 20
-433.10967721775569
 30
0.0
 11
351.40696663646759
 21
-434.31099391969281
 31
0.0
  0
LINE
  5
510
  8
DATA
  6
CONTINUOUS
 62
     7
 10
352.7069666364676
 20
-433.10967721775569
 30
0.0
 11
352.7069666364676
 21
-434.31099391969281
 31
0.0
  0
LINE
  5
511
  8
DATA
  6
CONTINUOUS
 62
     7
 10
354.2069666364676
 20
-434.60967721775557
 30
0.0
 11
353.00564993452173
 21
-434.60967721775557
 31
0.0
  0
LINE
  5
512
  8
DATA
  6
CONTINUOUS
 62
     7
 10
354.2069666364676
 20
-435.90967721775559
 30
0.0
 11
353.00564993452173
 21
-435.90967721775559
 31
0.0
  0
LINE
  5
513
  8
DATA
  6
CONTINUOUS
 62
     7
 10
349.90696663646759
 20
-434.60967721775557
 30
0.0
 11
351.10828333841351
 21
-434.60967721775557
 31
0.0
  0
LINE
  5
514
  8
DATA
  6
CONTINUOUS
 62
     7
 10
352.7069666364676
 20
-437.40967721775559
 30
0.0
 11
352.7069666364676
 21
-436.20836051581853
 31
0.0
  0
LINE
  5
515
  8
DATA
  6
CONTINUOUS
 62
     7
 10
351.40696663646759
 20
-437.40967721775559
 30
0.0
 11
351.40696663646759
 21
-436.20836051581853
 31
0.0
  0
LINE
  5
516
  8
DATA
  6
CONTINUOUS
 62
     7
 10
349.90696663646759
 20
-435.90967721775559
 30
0.0
 11
351.10828333841351
 21
-435.90967721775559
 31
0.0
  0
ARC
  5
517
  8
DATA
  6
CONTINUOUS
 62
     7
 10
352.05696663646751
 20
-435.25967721775561
 30
0.0
 40
1.15000000000292
 50
124.4173887100967
 51
145.5826112896566
  0
ARC
  5
518
  8
DATA
  6
CONTINUOUS
 62
     7
 10
352.05696663646751
 20
-435.25967721775561
 30
0.0
 40
1.1500000000101409
 50
34.4173887103412
 51
55.582611289905472
  0
ARC
  5
519
  8
DATA
  6
CONTINUOUS
 62
     7
 10
352.05696663646751
 20
-435.25967721775561
 30
0.0
 40
1.15000000000292
 50
304.41738871009687
 51
325.58261128966058
  0
ARC
  5
51A
  8
DATA
  6
CONTINUOUS
 62
     7
 10
352.05696663646751
 20
-435.25967721775561
 30
0.0
 40
1.1500000000101409
 50
214.41738871034121
 51
235.5826112899054
  0
LINE
  5
51B
  8
DATA
  6
CONTINUOUS
 62
     7
 10
370.55696663646751
 20
-404.40744480387002
 30
0.0
 11
370.55696663646751
 21
-427.80744480386988
 31
0.0
  0
LINE
  5
51C
  8
DATA
  6
CONTINUOUS
 62
     7
 10
370.55696663646751
 20
-404.40744480387002
 30
0.0
 11
369.05696663646762
 21
-404.40744480387002
 31
0.0
  0
TEXT
  5
51D
  8
DATA
 62
     7
 10
-358.07060586944129
 20
-422.74610277151629
 30
0.0
 40
1.923828125
  1
PROFESSIONAL PRODUCTS  
 41
0.8
 11
-358.07060586944129
 21
-420.82227464651629
 31
0.0
 73
     3
  0
POLYLINE
  5
51E
  8
DATA
  6
CONTINUOUS
 62
     7
 66
     1
 10
0.0
 20
0.0
 30
0.0
 70
   129
  0
VERTEX
  5
E6C
  8
DATA
  6
CONTINUOUS
 62
     7
 10
217.0569666364668
 20
-404.04251026649399
 30
0.0
 42
-0.4142135623730951
  0
VERTEX
  5
E6D
  8
DATA
  6
CONTINUOUS
 62
     7
 10
217.5569666364668
 20
-403.54251026649399
 30
0.0
  0
VERTEX
  5
E6E
  8
DATA
  6
CONTINUOUS
 62
     7
 10
220.0569666364668
 20
-403.54251026649399
 30
0.0
  0
VERTEX
  5
E6F
  8
DATA
  6
CONTINUOUS
 62
     7
 10
220.0569666364668
 20
-409.24251026649398
 30
0.0
  0
VERTEX
  5
E70
  8
DATA
  6
CONTINUOUS
 62
     7
 10
217.5569666364668
 20
-409.24251026649398
 30
0.0
 42
-0.4142135623730784
  0
VERTEX
  5
E71
  8
DATA
  6
CONTINUOUS
 62
     7
 10
217.0569666364668
 20
-408.74251026649398
 30
0.0
  0
SEQEND
  5
E72
  8
DATA
  6
CONTINUOUS
 62
     7
  0
POLYLINE
  5
526
  8
DATA
  6
CONTINUOUS
 62
     7
 66
     1
 10
0.0
 20
0.0
 30
0.0
 70
   129
  0
VERTEX
  5
E73
  8
DATA
  6
CONTINUOUS
 62
     7
 10
217.0569666364668
 20
-427.47684416901728
 30
0.0
 42
-0.4142135623730951
  0
VERTEX
  5
E74
  8
DATA
  6
CONTINUOUS
 62
     7
 10
217.5569666364668
 20
-426.97684416901728
 30
0.0
  0
VERTEX
  5
E75
  8
DATA
  6
CONTINUOUS
 62
     7
 10
220.0569666364668
 20
-426.97684416901728
 30
0.0
  0
VERTEX
  5
E76
  8
DATA
  6
CONTINUOUS
 62
     7
 10
220.0569666364668
 20
-432.67684416901722
 30
0.0
  0
VERTEX
  5
E77
  8
DATA
  6
CONTINUOUS
 62
     7
 10
217.5569666364668
 20
-432.67684416901722
 30
0.0
 42
-0.4142135623730784
  0
VERTEX
  5
E78
  8
DATA
  6
CONTINUOUS
 62
     7
 10
217.0569666364668
 20
-432.17684416901722
 30
0.0
  0
SEQEND
  5
E79
  8
DATA
  6
CONTINUOUS
 62
     7
  0
CIRCLE
  5
52E
  8
DATA
  6
CONTINUOUS
 62
     7
 10
-329.83073940456848
 20
-429.51617297496171
 30
0.0
 40
2.8000000000000109
  0
POLYLINE
  5
52F
  8
DATA
  6
CONTINUOUS
 62
     7
 66
     1
 10
0.0
 20
0.0
 30
0.0
 70
     1
  0
VERTEX
  5
E7A
  8
DATA
  6
CONTINUOUS
 62
     7
 10
-328.4307394045685
 20
-429.51617297496171
 30
0.0
  0
VERTEX
  5
E7B
  8
DATA
  6
CONTINUOUS
 62
     7
 10
-329.13073940456837
 20
-430.7286085402601
 30
0.0
  0
VERTEX
  5
E7C
  8
DATA
  6
CONTINUOUS
 62
     7
 10
-330.53073940456841
 20
-430.7286085402601
 30
0.0
  0
VERTEX
  5
E7D
  8
DATA
  6
CONTINUOUS
 62
     7
 10
-331.23073940456851
 20
-429.51617297496171
 30
0.0
  0
VERTEX
  5
E7E
  8
DATA
  6
CONTINUOUS
 62
     7
 10
-330.53073940456841
 20
-428.30373740966371
 30
0.0
  0
VERTEX
  5
E7F
  8
DATA
  6
CONTINUOUS
 62
     7
 10
-329.13073940456837
 20
-428.30373740966371
 30
0.0
  0
SEQEND
  5
E80
  8
DATA
  6
CONTINUOUS
 62
     7
  0
TEXT
  5
537
  8
DATA
 62
     7
 10
233.5088757718411
 20
-555.7321086492808
 30
0.0
 40
12.21630859375
  1
dbx
 41
0.8
 11
233.5088757718411
 21
-543.5158000555308
 31
0.0
 73
     3
  0
LINE
  5
538
  8
DATA
  6
CONTINUOUS
 62
     7
 10
217.0569666364668
 20
-403.04251026649399
 30
0.0
 11
217.0569666364668
 21
-398.60686370971922
 31
0.0
  0
LINE
  5
539
  8
DATA
  6
CONTINUOUS
 62
     7
 10
217.5569666364668
 20
-398.10686370971922
 30
0.0
 11
220.0569666364668
 21
-398.10686370971922
 31
0.0
  0
ARC
  5
53A
  8
DATA
  6
CONTINUOUS
 62
     7
 10
217.5569666364668
 20
-398.60686370971922
 30
0.0
 40
0.5
 50
90.0
 51
180.0
  0
ARC
  5
53B
  8
DATA
  6
CONTINUOUS
 62
     7
 10
217.5569666364668
 20
-403.04251026649399
 30
0.0
 40
0.5
 50
180.0
 51
270.0
  0
POLYLINE
  5
53C
  8
DATA
  6
CONTINUOUS
 62
     7
 66
     1
 10
0.0
 20
0.0
 30
0.0
 70
     1
  0
VERTEX
  5
E81
  8
DATA
  6
CONTINUOUS
 62
     7
 10
-360.0
 20
-394.99900602370019
 30
0.0
  0
VERTEX
  5
E82
  8
DATA
  6
CONTINUOUS
 62
     7
 10
122.9587024264731
 20
-394.99900602370019
 30
0.0
  0
VERTEX
  5
E83
  8
DATA
  6
CONTINUOUS
 62
     7
 10
122.9587024264731
 20
-440.0
 30
0.0
  0
VERTEX
  5
E84
  8
DATA
  6
CONTINUOUS
 62
     7
 10
-360.0
 20
-440.0
 30
0.0
  0
SEQEND
  5
E85
  8
DATA
  6
CONTINUOUS
 62
     7
  0
POLYLINE
  5
542
  8
DATA
  6
CONTINUOUS
 62
     7
 66
     1
 10
0.0
 20
0.0
 30
0.0
 70
     1
  0
VERTEX
  5
E86
  8
DATA
  6
CONTINUOUS
 62
     7
 10
-360.00118038183518
 20
44.993914327722493
 30
0.0
  0
VERTEX
  5
E87
  8
DATA
  6
CONTINUOUS
 62
     7
 10
122.9988196181647
 20
44.993914327722493
 30
0.0
  0
VERTEX
  5
E88
  8
DATA
  6
CONTINUOUS
 62
     7
 10
122.9988196181647
 20
-0.0060856722775
 30
0.0
  0
VERTEX
  5
E89
  8
DATA
  6
CONTINUOUS
 62
     7
 10
-360.00118038183518
 20
-0.0060856722775
 30
0.0
  0
SEQEND
  5
E8A
  8
DATA
  6
CONTINUOUS
 62
     7
  0
LINE
  5
548
  8
DATA
  6
CONTINUOUS
 62
     7
 10
100.9988196181647
 20
44.39391432772247
 30
0.0
 11
100.9988196181647
 21
44.993914327722493
 31
0.0
  0
LINE
  5
549
  8
DATA
  6
CONTINUOUS
 62
     7
 10
-337.0011803818345
 20
44.39391432772247
 30
0.0
 11
-337.0011803818345
 21
44.993914327722493
 31
0.0
  0
CIRCLE
  5
54A
  8
DATA
  6
CONTINUOUS
 62
     7
 10
-118.0412975735278
 20
-435.15977946363722
 30
0.0
 40
2.7999999999999958
  0
POLYLINE
  5
54B
  8
DATA
  6
CONTINUOUS
 62
     7
 66
     1
 10
0.0
 20
0.0
 30
0.0
 70
     1
  0
VERTEX
  5
E8B
  8
DATA
  6
CONTINUOUS
 62
     7
 10
-116.64129757352779
 20
-435.22271720230839
 30
0.0
  0
VERTEX
  5
E8C
  8
DATA
  6
CONTINUOUS
 62
     7
 10
-117.3412975735278
 20
-434.01028163701022
 30
0.0
  0
VERTEX
  5
E8D
  8
DATA
  6
CONTINUOUS
 62
     7
 10
-118.7412975735278
 20
-434.01028163701022
 30
0.0
  0
VERTEX
  5
E8E
  8
DATA
  6
CONTINUOUS
 62
     7
 10
-119.44129757352781
 20
-435.22271720230839
 30
0.0
  0
VERTEX
  5
E8F
  8
DATA
  6
CONTINUOUS
 62
     7
 10
-118.7412975735278
 20
-436.43515276760661
 30
0.0
  0
VERTEX
  5
E90
  8
DATA
  6
CONTINUOUS
 62
     7
 10
-117.3412975735278
 20
-436.43515276760661
 30
0.0
  0
SEQEND
  5
E91
  8
DATA
  6
CONTINUOUS
 62
     7
  0
POLYLINE
  5
553
  8
DATA
  6
CONTINUOUS
 62
     7
 66
     1
 10
0.0
 20
0.0
 30
0.0
 70
   129
  0
VERTEX
  5
E92
  8
DATA
  6
CONTINUOUS
 62
     7
 10
217.0569666364668
 20
-433.26325182167398
 30
0.0
 42
-0.4142135623730951
  0
VERTEX
  5
E93
  8
DATA
  6
CONTINUOUS
 62
     7
 10
217.5569666364668
 20
-432.76325182167398
 30
0.0
  0
VERTEX
  5
E94
  8
DATA
  6
CONTINUOUS
 62
     7
 10
220.0569666364668
 20
-432.76325182167398
 30
0.0
  0
VERTEX
  5
E95
  8
DATA
  6
CONTINUOUS
 62
     7
 10
220.0569666364668
 20
-438.46325182167391
 30
0.0
  0
VERTEX
  5
E96
  8
DATA
  6
CONTINUOUS
 62
     7
 10
217.5569666364668
 20
-438.46325182167391
 30
0.0
 42
-0.4142135623730784
  0
VERTEX
  5
E97
  8
DATA
  6
CONTINUOUS
 62
     7
 10
217.0569666364668
 20
-437.96325182167391
 30
0.0
  0
SEQEND
  5
E98
  8
DATA
  6
CONTINUOUS
 62
     7
  0
LINE
  5
55B
  8
DATA
  6
CONTINUOUS
 62
     7
 10
-331.70118038183449
 20
39.993914327722493
 30
0.0
 11
-331.70118038183449
 21
44.993914327722493
 31
0.0
  0
LINE
  5
55C
  8
DATA
  6
CONTINUOUS
 62
     7
 10
95.698819618164677
 20
39.993914327722493
 30
0.0
 11
95.698819618164677
 21
44.993914327722493
 31
0.0
  0
ARC
  5
55D
  8
DATA
  6
CONTINUOUS
 62
     7
 10
220.39580066312561
 20
-426.00133780520491
 30
0.0
 40
1.5374999999999901
 50
257.26865533724919
 51
257.31961650818511
  0
LINE
  5
55E
  8
DATA
  6
CONTINUOUS
 62
     7
 10
369.05696663646762
 20
-406.40866818871763
 30
0.0
 11
369.05577758265167
 21
-406.40866818871763
 31
0.0
  0
LINE
  5
55F
  8
DATA
  6
CONTINUOUS
 62
     7
 10
369.05696663646762
 20
-406.70866818871758
 30
0.0
 11
369.05577758265167
 21
-406.70866818871758
 31
0.0
  0
LINE
  5
560
  8
DATA
  6
CONTINUOUS
 62
     7
 10
-119.2726352584138
 20
-282.84638818737119
 30
0.0
 11
-116.67263525841381
 21
-282.84638818737119
 31
0.0
  0
LINE
  5
561
  8
DATA
  6
CONTINUOUS
 62
     7
 10
-120.7726352584137
 20
-281.34638818737108
 30
0.0
 11
-120.7726352584137
 21
-279.84638818737108
 31
0.0
  0
LINE
  5
562
  8
DATA
  6
CONTINUOUS
 62
     7
 10
-115.17263525841371
 20
-281.34638818737108
 30
0.0
 11
-115.17263525841371
 21
-279.84638818737108
 31
0.0
  0
ARC
  5
563
  8
DATA
  6
CONTINUOUS
 62
     7
 10
-119.2726352584138
 20
-281.34638818737108
 30
0.0
 40
1.5
 50
180.0
 51
270.0
  0
ARC
  5
564
  8
DATA
  6
CONTINUOUS
 62
     7
 10
-116.67263525841381
 20
-281.34638818737108
 30
0.0
 40
1.5
 50
270.0
 51
0.0
  0
ARC
  5
565
  8
DATA
  6
CONTINUOUS
 62
     7
 10
-121.7864741172247
 20
-279.50854721242501
 30
0.0
 40
1.5374999999999741
 50
347.30659189143302
 51
347.31961650818528
  0
ARC
  5
566
  8
DATA
  6
CONTINUOUS
 62
     7
 10
-114.2864741172247
 20
-279.50854721242501
 30
0.0
 40
1.537499999999969
 50
192.68038349181489
 51
192.6934081085997
  0
POLYLINE
  5
567
  8
DATA
  6
CONTINUOUS
 62
     7
 66
     1
 10
0.0
 20
0.0
 30
0.0
 70
     1
  0
VERTEX
  5
E99
  8
DATA
  6
CONTINUOUS
 62
     7
 10
-156.7178375356736
 20
-408.77773139743158
 30
0.0
  0
VERTEX
  5
E9A
  8
DATA
  6
CONTINUOUS
 62
     7
 10
-146.51783753567381
 20
-408.77773139743158
 30
0.0
  0
VERTEX
  5
E9B
  8
DATA
  6
CONTINUOUS
 62
     7
 10
-146.51783753567381
 20
-414.77773139743158
 30
0.0
  0
VERTEX
  5
E9C
  8
DATA
  6
CONTINUOUS
 62
     7
 10
-156.7178375356736
 20
-414.77773139743158
 30
0.0
  0
SEQEND
  5
E9D
  8
DATA
  6
CONTINUOUS
 62
     7
  0
POLYLINE
  5
56D
  8
DATA
  6
CONTINUOUS
 62
     7
 66
     1
 10
0.0
 20
0.0
 30
0.0
 70
     1
  0
VERTEX
  5
E9E
  8
DATA
  6
CONTINUOUS
 62
     7
 10
-157.76783753567341
 20
-407.52773139743158
 30
0.0
  0
VERTEX
  5
E9F
  8
DATA
  6
CONTINUOUS
 62
     7
 10
-145.46783753567371
 20
-407.52773139743158
 30
0.0
  0
VERTEX
  5
EA0
  8
DATA
  6
CONTINUOUS
 62
     7
 10
-145.46783753567371
 20
-416.02773139743158
 30
0.0
  0
VERTEX
  5
EA1
  8
DATA
  6
CONTINUOUS
 62
     7
 10
-157.76783753567341
 20
-416.02773139743158
 30
0.0
  0
SEQEND
  5
EA2
  8
DATA
  6
CONTINUOUS
 62
     7
  0
POLYLINE
  5
573
  8
DATA
  6
CONTINUOUS
 62
     7
 66
     1
 10
0.0
 20
0.0
 30
0.0
 70
     1
  0
VERTEX
  5
EA3
  8
DATA
  6
CONTINUOUS
 62
     7
 10
-156.42169557120309
 20
-409.08130371788502
 30
0.0
  0
VERTEX
  5
EA4
  8
DATA
  6
CONTINUOUS
 62
     7
 10
-153.1216955712033
 20
-409.08130371788502
 30
0.0
  0
VERTEX
  5
EA5
  8
DATA
  6
CONTINUOUS
 62
     7
 10
-153.1216955712033
 20
-410.6813037178851
 30
0.0
  0
VERTEX
  5
EA6
  8
DATA
  6
CONTINUOUS
 62
     7
 10
-156.42169557120309
 20
-410.6813037178851
 30
0.0
  0
SEQEND
  5
EA7
  8
DATA
  6
CONTINUOUS
 62
     7
  0
POLYLINE
  5
579
  8
DATA
  6
CONTINUOUS
 62
     7
 66
     1
 10
0.0
 20
0.0
 30
0.0
 70
     1
  0
VERTEX
  5
EA8
  8
DATA
  6
CONTINUOUS
 62
     7
 10
-156.69125405181569
 20
-419.1524739023597
 30
0.0
  0
VERTEX
  5
EA9
  8
DATA
  6
CONTINUOUS
 62
     7
 10
-146.49125405181439
 20
-419.1524739023597
 30
0.0
  0
VERTEX
  5
EAA
  8
DATA
  6
CONTINUOUS
 62
     7
 10
-146.49125405181439
 20
-425.15247390235959
 30
0.0
  0
VERTEX
  5
EAB
  8
DATA
  6
CONTINUOUS
 62
     7
 10
-156.69125405181569
 20
-425.15247390235959
 30
0.0
  0
SEQEND
  5
EAC
  8
DATA
  6
CONTINUOUS
 62
     7
  0
POLYLINE
  5
57F
  8
DATA
  6
CONTINUOUS
 62
     7
 66
     1
 10
0.0
 20
0.0
 30
0.0
 70
     1
  0
VERTEX
  5
EAD
  8
DATA
  6
CONTINUOUS
 62
     7
 10
-157.74125405181559
 20
-417.9024739023597
 30
0.0
  0
VERTEX
  5
EAE
  8
DATA
  6
CONTINUOUS
 62
     7
 10
-145.44125405181421
 20
-417.9024739023597
 30
0.0
  0
VERTEX
  5
EAF
  8
DATA
  6
CONTINUOUS
 62
     7
 10
-145.44125405181421
 20
-426.4024739023597
 30
0.0
  0
VERTEX
  5
EB0
  8
DATA
  6
CONTINUOUS
 62
     7
 10
-157.74125405181559
 20
-426.4024739023597
 30
0.0
  0
SEQEND
  5
EB1
  8
DATA
  6
CONTINUOUS
 62
     7
  0
POLYLINE
  5
585
  8
DATA
  6
CONTINUOUS
 62
     7
 66
     1
 10
0.0
 20
0.0
 30
0.0
 70
     1
  0
VERTEX
  5
EB2
  8
DATA
  6
CONTINUOUS
 62
     7
 10
-156.39511208734521
 20
-419.45604622281297
 30
0.0
  0
VERTEX
  5
EB3
  8
DATA
  6
CONTINUOUS
 62
     7
 10
-153.0951120873448
 20
-419.45604622281297
 30
0.0
  0
VERTEX
  5
EB4
  8
DATA
  6
CONTINUOUS
 62
     7
 10
-153.0951120873448
 20
-421.05604622281311
 30
0.0
  0
VERTEX
  5
EB5
  8
DATA
  6
CONTINUOUS
 62
     7
 10
-156.39511208734521
 20
-421.05604622281311
 30
0.0
  0
SEQEND
  5
EB6
  8
DATA
  6
CONTINUOUS
 62
     7
  0
LINE
  5
58B
  8
DATA
  6
CONTINUOUS
 62
     7
 10
-161.5957207433533
 20
-407.42819313581248
 30
0.0
 11
-162.55572074335331
 21
-411.42819313581248
 31
0.0
  0
LINE
  5
58C
  8
DATA
  6
CONTINUOUS
 62
     7
 10
-160.6357207433534
 20
-411.42819313581248
 30
0.0
 11
-161.5957207433533
 21
-407.42819313581248
 31
0.0
  0
LINE
  5
58D
  8
DATA
  6
CONTINUOUS
 62
     7
 10
-162.55572074335331
 20
-411.42819313581248
 30
0.0
 11
-160.6357207433534
 21
-411.42819313581248
 31
0.0
  0
LINE
  5
58E
  8
DATA
  6
CONTINUOUS
 62
     7
 10
-161.6190444157707
 20
-426.29522069822889
 30
0.0
 11
-160.65904441577069
 21
-422.29522069822889
 31
0.0
  0
LINE
  5
58F
  8
DATA
  6
CONTINUOUS
 62
     7
 10
-162.57904441577071
 20
-422.29522069822889
 30
0.0
 11
-161.6190444157707
 21
-426.29522069822889
 31
0.0
  0
LINE
  5
590
  8
DATA
  6
CONTINUOUS
 62
     7
 10
-160.65904441577069
 20
-422.29522069822889
 30
0.0
 11
-162.57904441577071
 21
-422.29522069822889
 31
0.0
  0
POLYLINE
  5
591
  8
DATA
  6
CONTINUOUS
 62
     7
 66
     1
 10
0.0
 20
0.0
 30
0.0
 70
     1
  0
VERTEX
  5
EB7
  8
DATA
  6
CONTINUOUS
 62
     7
 10
-213.22003623163309
 20
-414.19091050997753
 30
0.0
  0
VERTEX
  5
EB8
  8
DATA
  6
CONTINUOUS
 62
     7
 10
-203.0200362316333
 20
-414.19091050997753
 30
0.0
  0
VERTEX
  5
EB9
  8
DATA
  6
CONTINUOUS
 62
     7
 10
-203.0200362316333
 20
-420.19091050997741
 30
0.0
  0
VERTEX
  5
EBA
  8
DATA
  6
CONTINUOUS
 62
     7
 10
-213.22003623163309
 20
-420.19091050997741
 30
0.0
  0
SEQEND
  5
EBB
  8
DATA
  6
CONTINUOUS
 62
     7
  0
POLYLINE
  5
597
  8
DATA
  6
CONTINUOUS
 62
     7
 66
     1
 10
0.0
 20
0.0
 30
0.0
 70
     1
  0
VERTEX
  5
EBC
  8
DATA
  6
CONTINUOUS
 62
     7
 10
-214.2700362316329
 20
-412.94091050997741
 30
0.0
  0
VERTEX
  5
EBD
  8
DATA
  6
CONTINUOUS
 62
     7
 10
-201.9700362316332
 20
-412.94091050997741
 30
0.0
  0
VERTEX
  5
EBE
  8
DATA
  6
CONTINUOUS
 62
     7
 10
-201.9700362316332
 20
-421.44091050997741
 30
0.0
  0
VERTEX
  5
EBF
  8
DATA
  6
CONTINUOUS
 62
     7
 10
-214.2700362316329
 20
-421.44091050997741
 30
0.0
  0
SEQEND
  5
EC0
  8
DATA
  6
CONTINUOUS
 62
     7
  0
POLYLINE
  5
59D
  8
DATA
  6
CONTINUOUS
 62
     7
 66
     1
 10
0.0
 20
0.0
 30
0.0
 70
     1
  0
VERTEX
  5
EC1
  8
DATA
  6
CONTINUOUS
 62
     7
 10
-212.92389426716261
 20
-414.49448283043091
 30
0.0
  0
VERTEX
  5
EC2
  8
DATA
  6
CONTINUOUS
 62
     7
 10
-209.62389426716271
 20
-414.49448283043091
 30
0.0
  0
VERTEX
  5
EC3
  8
DATA
  6
CONTINUOUS
 62
     7
 10
-209.62389426716271
 20
-416.09448283043088
 30
0.0
  0
VERTEX
  5
EC4
  8
DATA
  6
CONTINUOUS
 62
     7
 10
-212.92389426716261
 20
-416.09448283043088
 30
0.0
  0
SEQEND
  5
EC5
  8
DATA
  6
CONTINUOUS
 62
     7
  0
POLYLINE
  5
5A3
  8
DATA
  6
CONTINUOUS
 62
     7
 66
     1
 10
0.0
 20
0.0
 30
0.0
 70
     1
  0
VERTEX
  5
EC6
  8
DATA
  6
CONTINUOUS
 62
     7
 10
-192.00414356341921
 20
-407.12194020886648
 30
0.0
  0
VERTEX
  5
EC7
  8
DATA
  6
CONTINUOUS
 62
     7
 10
-166.70414356341919
 20
-407.12194020886648
 30
0.0
  0
VERTEX
  5
EC8
  8
DATA
  6
CONTINUOUS
 62
     7
 10
-166.70414356341919
 20
-426.62194020886648
 30
0.0
  0
VERTEX
  5
EC9
  8
DATA
  6
CONTINUOUS
 62
     7
 10
-192.00414356341921
 20
-426.62194020886648
 30
0.0
  0
SEQEND
  5
ECA
  8
DATA
  6
CONTINUOUS
 62
     7
  0
TEXT
  5
5A9
  8
DATA
 62
     7
 10
86.833587792940776
 20
-416.53566138036109
 30
0.0
 40
3.84765625
  1
DriveRack 220i
 41
0.8
 11
86.833587792940776
 21
-412.68800513036109
 31
0.0
 73
     3
  0
TEXT
  5
5AA
  8
DATA
 62
     7
 10
96.651338774844007
 20
-419.83121109806672
 30
0.0
 40
2.1162109375
  1
System Processor
 41
0.8
 11
96.651338774844007
 21
-417.71500016056672
 31
0.0
 73
     3
  0
TEXT
  5
5AB
  8
DATA
 62
     7
 10
96.651338774844007
 20
-422.58121109806672
 30
0.0
 40
2.1162109375
  1
       With AFS
 41
0.8
 11
96.651338774844007
 21
-420.46500016056672
 31
0.0
 73
     3
  0
POLYLINE
  5
5AC
  8
DATA
  6
CONTINUOUS
 62
     7
 66
     1
 10
0.0
 20
0.0
 30
0.0
 70
   129
  0
VERTEX
  5
ECB
  8
DATA
  6
CONTINUOUS
 62
     7
 10
-281.32794099486148
 20
-415.72265747625681
 30
0.0
 42
-0.4142135623731284
  0
VERTEX
  5
ECC
  8
DATA
  6
CONTINUOUS
 62
     7
 10
-280.82794099486148
 20
-415.22265747625681
 30
0.0
 42
-0.4142135623730951
  0
VERTEX
  5
ECD
  8
DATA
  6
CONTINUOUS
 62
     7
 10
-280.32794099486148
 20
-415.72265747625681
 30
0.0
 42
-0.4142135623730617
  0
VERTEX
  5
ECE
  8
DATA
  6
CONTINUOUS
 62
     7
 10
-280.82794099486148
 20
-416.22265747625681
 30
0.0
 42
-0.4142135623730951
  0
VERTEX
  5
ECF
  8
DATA
  6
CONTINUOUS
 62
     7
 10
-281.32794099486148
 20
-415.72265747625681
 30
0.0
  0
SEQEND
  5
ED0
  8
DATA
  6
CONTINUOUS
 62
     7
  0
LINE
  5
5B3
  8
DATA
  6
CONTINUOUS
 62
     7
 10
-292.76794099486148
 20
-412.70259624171479
 30
0.0
 11
-279.86794099486139
 21
-412.70259624171479
 31
0.0
  0
LINE
  5
5B4
  8
DATA
  6
CONTINUOUS
 62
     7
 10
-292.39137099486129
 20
-421.04259624171488
 30
0.0
 11
-280.24450099486143
 21
-421.04259624171488
 31
0.0
  0
POLYLINE
  5
5B5
  8
DATA
  6
CONTINUOUS
 62
     7
 66
     1
 10
0.0
 20
0.0
 30
0.0
 70
   129
  0
VERTEX
  5
ED1
  8
DATA
  6
CONTINUOUS
 62
     7
 10
-282.70794099486147
 20
-418.56265747625702
 30
0.0
 42
-0.4142135623730951
  0
VERTEX
  5
ED2
  8
DATA
  6
CONTINUOUS
 62
     7
 10
-282.20794099486147
 20
-418.0626574762569
 30
0.0
 42
-0.4142135623730951
  0
VERTEX
  5
ED3
  8
DATA
  6
CONTINUOUS
 62
     7
 10
-281.70794099486147
 20
-418.56265747625702
 30
0.0
 42
-0.4142135623730951
  0
VERTEX
  5
ED4
  8
DATA
  6
CONTINUOUS
 62
     7
 10
-282.20794099486147
 20
-419.0626574762569
 30
0.0
 42
-0.4142135623730617
  0
VERTEX
  5
ED5
  8
DATA
  6
CONTINUOUS
 62
     7
 10
-282.70794099486147
 20
-418.56265747625702
 30
0.0
  0
SEQEND
  5
ED6
  8
DATA
  6
CONTINUOUS
 62
     7
  0
POLYLINE
  5
5BC
  8
DATA
  6
CONTINUOUS
 62
     7
 66
     1
 10
0.0
 20
0.0
 30
0.0
 70
   129
  0
VERTEX
  5
ED7
  8
DATA
  6
CONTINUOUS
 62
     7
 10
-285.44794099486148
 20
-418.56265747625702
 30
0.0
 42
-0.4142135623730951
  0
VERTEX
  5
ED8
  8
DATA
  6
CONTINUOUS
 62
     7
 10
-284.94794099486148
 20
-418.0626574762569
 30
0.0
 42
-0.4142135623730951
  0
VERTEX
  5
ED9
  8
DATA
  6
CONTINUOUS
 62
     7
 10
-284.44794099486148
 20
-418.56265747625702
 30
0.0
 42
-0.4142135623730951
  0
VERTEX
  5
EDA
  8
DATA
  6
CONTINUOUS
 62
     7
 10
-284.94794099486148
 20
-419.0626574762569
 30
0.0
 42
-0.4142135623730951
  0
VERTEX
  5
EDB
  8
DATA
  6
CONTINUOUS
 62
     7
 10
-285.44794099486148
 20
-418.56265747625702
 30
0.0
  0
SEQEND
  5
EDC
  8
DATA
  6
CONTINUOUS
 62
     7
  0
POLYLINE
  5
5C3
  8
DATA
  6
CONTINUOUS
 62
     7
 66
     1
 10
0.0
 20
0.0
 30
0.0
 70
   129
  0
VERTEX
  5
EDD
  8
DATA
  6
CONTINUOUS
 62
     7
 10
-290.9279409948615
 20
-418.56265747625702
 30
0.0
 42
-0.4142135623730951
  0
VERTEX
  5
EDE
  8
DATA
  6
CONTINUOUS
 62
     7
 10
-290.4279409948615
 20
-418.0626574762569
 30
0.0
 42
-0.4142135623730951
  0
VERTEX
  5
EDF
  8
DATA
  6
CONTINUOUS
 62
     7
 10
-289.9279409948615
 20
-418.56265747625702
 30
0.0
 42
-0.4142135623731284
  0
VERTEX
  5
EE0
  8
DATA
  6
CONTINUOUS
 62
     7
 10
-290.4279409948615
 20
-419.0626574762569
 30
0.0
 42
-0.4142135623730951
  0
VERTEX
  5
EE1
  8
DATA
  6
CONTINUOUS
 62
     7
 10
-290.9279409948615
 20
-418.56265747625702
 30
0.0
  0
SEQEND
  5
EE2
  8
DATA
  6
CONTINUOUS
 62
     7
  0
POLYLINE
  5
5CA
  8
DATA
  6
CONTINUOUS
 62
     7
 66
     1
 10
0.0
 20
0.0
 30
0.0
 70
   129
  0
VERTEX
  5
EE3
  8
DATA
  6
CONTINUOUS
 62
     7
 10
-289.5579409948615
 20
-415.72265747625681
 30
0.0
 42
-0.4142135623731284
  0
VERTEX
  5
EE4
  8
DATA
  6
CONTINUOUS
 62
     7
 10
-289.0579409948615
 20
-415.22265747625681
 30
0.0
 42
-0.4142135623730951
  0
VERTEX
  5
EE5
  8
DATA
  6
CONTINUOUS
 62
     7
 10
-288.5579409948615
 20
-415.72265747625681
 30
0.0
 42
-0.4142135623730617
  0
VERTEX
  5
EE6
  8
DATA
  6
CONTINUOUS
 62
     7
 10
-289.0579409948615
 20
-416.22265747625681
 30
0.0
 42
-0.4142135623730951
  0
VERTEX
  5
EE7
  8
DATA
  6
CONTINUOUS
 62
     7
 10
-289.5579409948615
 20
-415.72265747625681
 30
0.0
  0
SEQEND
  5
EE8
  8
DATA
  6
CONTINUOUS
 62
     7
  0
POLYLINE
  5
5D1
  8
DATA
  6
CONTINUOUS
 62
     7
 66
     1
 10
0.0
 20
0.0
 30
0.0
 70
   129
  0
VERTEX
  5
EE9
  8
DATA
  6
CONTINUOUS
 62
     7
 10
-292.3079409948615
 20
-415.72265747625681
 30
0.0
 42
-0.4142135623731284
  0
VERTEX
  5
EEA
  8
DATA
  6
CONTINUOUS
 62
     7
 10
-291.8079409948615
 20
-415.22265747625681
 30
0.0
 42
-0.4142135623730951
  0
VERTEX
  5
EEB
  8
DATA
  6
CONTINUOUS
 62
     7
 10
-291.3079409948615
 20
-415.72265747625681
 30
0.0
 42
-0.4142135623730617
  0
VERTEX
  5
EEC
  8
DATA
  6
CONTINUOUS
 62
     7
 10
-291.8079409948615
 20
-416.22265747625681
 30
0.0
 42
-0.4142135623730951
  0
VERTEX
  5
EED
  8
DATA
  6
CONTINUOUS
 62
     7
 10
-292.3079409948615
 20
-415.72265747625681
 30
0.0
  0
SEQEND
  5
EEE
  8
DATA
  6
CONTINUOUS
 62
     7
  0
POLYLINE
  5
5D8
  8
DATA
  6
CONTINUOUS
 62
     7
 66
     1
 10
0.0
 20
0.0
 30
0.0
 70
   129
  0
VERTEX
  5
EEF
  8
DATA
  6
CONTINUOUS
 62
     7
 10
-284.07794099486148
 20
-415.72265747625681
 30
0.0
 42
-0.4142135623731284
  0
VERTEX
  5
EF0
  8
DATA
  6
CONTINUOUS
 62
     7
 10
-283.57794099486148
 20
-415.22265747625681
 30
0.0
 42
-0.4142135623730951
  0
VERTEX
  5
EF1
  8
DATA
  6
CONTINUOUS
 62
     7
 10
-283.07794099486148
 20
-415.72265747625681
 30
0.0
 42
-0.4142135623730617
  0
VERTEX
  5
EF2
  8
DATA
  6
CONTINUOUS
 62
     7
 10
-283.57794099486148
 20
-416.22265747625681
 30
0.0
 42
-0.4142135623730951
  0
VERTEX
  5
EF3
  8
DATA
  6
CONTINUOUS
 62
     7
 10
-284.07794099486148
 20
-415.72265747625681
 30
0.0
  0
SEQEND
  5
EF4
  8
DATA
  6
CONTINUOUS
 62
     7
  0
POLYLINE
  5
5DF
  8
DATA
  6
CONTINUOUS
 62
     7
 66
     1
 10
0.0
 20
0.0
 30
0.0
 70
   129
  0
VERTEX
  5
EF5
  8
DATA
  6
CONTINUOUS
 62
     7
 10
-288.18794099486149
 20
-418.56265747625702
 30
0.0
 42
-0.4142135623730951
  0
VERTEX
  5
EF6
  8
DATA
  6
CONTINUOUS
 62
     7
 10
-287.68794099486149
 20
-418.0626574762569
 30
0.0
 42
-0.4142135623730951
  0
VERTEX
  5
EF7
  8
DATA
  6
CONTINUOUS
 62
     7
 10
-287.18794099486149
 20
-418.56265747625702
 30
0.0
 42
-0.4142135623731284
  0
VERTEX
  5
EF8
  8
DATA
  6
CONTINUOUS
 62
     7
 10
-287.68794099486149
 20
-419.0626574762569
 30
0.0
 42
-0.4142135623730617
  0
VERTEX
  5
EF9
  8
DATA
  6
CONTINUOUS
 62
     7
 10
-288.18794099486149
 20
-418.56265747625702
 30
0.0
  0
SEQEND
  5
EFA
  8
DATA
  6
CONTINUOUS
 62
     7
  0
POLYLINE
  5
5E6
  8
DATA
  6
CONTINUOUS
 62
     7
 66
     1
 10
0.0
 20
0.0
 30
0.0
 70
   129
  0
VERTEX
  5
EFB
  8
DATA
  6
CONTINUOUS
 62
     7
 10
-286.81794099486149
 20
-415.72265747625681
 30
0.0
 42
-0.4142135623731284
  0
VERTEX
  5
EFC
  8
DATA
  6
CONTINUOUS
 62
     7
 10
-286.31794099486149
 20
-415.22265747625681
 30
0.0
 42
-0.4142135623730951
  0
VERTEX
  5
EFD
  8
DATA
  6
CONTINUOUS
 62
     7
 10
-285.81794099486149
 20
-415.72265747625681
 30
0.0
 42
-0.4142135623730617
  0
VERTEX
  5
EFE
  8
DATA
  6
CONTINUOUS
 62
     7
 10
-286.31794099486149
 20
-416.22265747625681
 30
0.0
 42
-0.4142135623730951
  0
VERTEX
  5
EFF
  8
DATA
  6
CONTINUOUS
 62
     7
 10
-286.81794099486149
 20
-415.72265747625681
 30
0.0
  0
SEQEND
  5
F00
  8
DATA
  6
CONTINUOUS
 62
     7
  0
ARC
  5
5ED
  8
DATA
  6
CONTINUOUS
 62
     7
 10
-292.76794099486148
 20
-414.70259624171479
 30
0.0
 40
2.000000000000056
 50
90.0
 51
180.0
  0
LINE
  5
5EE
  8
DATA
  6
CONTINUOUS
 62
     7
 10
-294.76794099486148
 20
-414.70259624171479
 30
0.0
 11
-293.86859099486151
 21
-419.80306624171487
 31
0.0
  0
ARC
  5
5EF
  8
DATA
  6
CONTINUOUS
 62
     7
 10
-292.39137099486129
 20
-419.54259624171488
 30
0.0
 40
1.499998001665348
 50
189.9999255496013
 51
270.0
  0
ARC
  5
5F0
  8
DATA
  6
CONTINUOUS
 62
     7
 10
-279.86794099486139
 20
-414.70259624171479
 30
0.0
 40
2.0
 50
0.0
 51
90.0
  0
LINE
  5
5F1
  8
DATA
  6
CONTINUOUS
 62
     7
 10
-277.86794099486139
 20
-414.70259624171479
 30
0.0
 11
-278.76729099486153
 21
-419.80306624171487
 31
0.0
  0
ARC
  5
5F2
  8
DATA
  6
CONTINUOUS
 62
     7
 10
-280.24450099486143
 20
-419.54259624171488
 30
0.0
 40
1.5
 50
270.0
 51
350.00007445039779
  0
POLYLINE
  5
5F3
  8
DATA
  6
CONTINUOUS
 62
     7
 66
     1
 10
0.0
 20
0.0
 30
0.0
 70
     1
  0
VERTEX
  5
F01
  8
DATA
  6
CONTINUOUS
 62
     7
 10
-297.575173906987
 20
-414.7207533027921
 30
0.0
  0
VERTEX
  5
F02
  8
DATA
  6
CONTINUOUS
 62
     7
 10
-300.2909576839869
 20
-414.85946147474698
 30
0.0
  0
VERTEX
  5
F03
  8
DATA
  6
CONTINUOUS
 62
     7
 10
-301.52872477186128
 20
-417.28075330279199
 30
0.0
  0
VERTEX
  5
F04
  8
DATA
  6
CONTINUOUS
 62
     7
 10
-300.05070808273592
 20
-419.56333695888208
 30
0.0
  0
VERTEX
  5
F05
  8
DATA
  6
CONTINUOUS
 62
     7
 10
-297.33492430573602
 20
-419.42462878692731
 30
0.0
  0
VERTEX
  5
F06
  8
DATA
  6
CONTINUOUS
 62
     7
 10
-296.09715721786148
 20
-417.00333695888219
 30
0.0
  0
SEQEND
  5
F07
  8
DATA
  6
CONTINUOUS
 62
     7
  0
CIRCLE
  5
5FB
  8
DATA
  6
CONTINUOUS
 62
     7
 10
-298.81294099486149
 20
-417.14204513083712
 30
0.0
 40
1.149999999999977
  0
CIRCLE
  5
5FC
  8
DATA
  6
CONTINUOUS
 62
     7
 10
-298.81294099486149
 20
-417.14204513083712
 30
0.0
 40
1.759905868717929
  0
POLYLINE
  5
5FD
  8
DATA
  6
CONTINUOUS
 62
     7
 66
     1
 10
0.0
 20
0.0
 30
0.0
 70
     1
  0
VERTEX
  5
F08
  8
DATA
  6
CONTINUOUS
 62
     7
 10
-272.58517390698688
 20
-414.7207533027921
 30
0.0
  0
VERTEX
  5
F09
  8
DATA
  6
CONTINUOUS
 62
     7
 10
-275.30095768398689
 20
-414.85946147474698
 30
0.0
  0
VERTEX
  5
F0A
  8
DATA
  6
CONTINUOUS
 62
     7
 10
-276.53872477186133
 20
-417.28075330279199
 30
0.0
  0
VERTEX
  5
F0B
  8
DATA
  6
CONTINUOUS
 62
     7
 10
-275.06070808273591
 20
-419.56333695888208
 30
0.0
  0
VERTEX
  5
F0C
  8
DATA
  6
CONTINUOUS
 62
     7
 10
-272.34492430573607
 20
-419.42462878692731
 30
0.0
  0
VERTEX
  5
F0D
  8
DATA
  6
CONTINUOUS
 62
     7
 10
-271.10715721786158
 20
-417.00333695888219
 30
0.0
  0
SEQEND
  5
F0E
  8
DATA
  6
CONTINUOUS
 62
     7
  0
CIRCLE
  5
605
  8
DATA
  6
CONTINUOUS
 62
     7
 10
-273.82294099486143
 20
-417.14204513083712
 30
0.0
 40
1.149999999999977
  0
CIRCLE
  5
606
  8
DATA
  6
CONTINUOUS
 62
     7
 10
-273.82294099486143
 20
-417.14204513083712
 30
0.0
 40
1.759905868717929
  0
LINE
  5
607
  8
DATA
  6
CONTINUOUS
 62
     7
 10
-293.73544099486151
 20
-412.0770962417148
 30
0.0
 11
-278.90044099486153
 21
-412.0770962417148
 31
0.0
  0
LINE
  5
608
  8
DATA
  6
CONTINUOUS
 62
     7
 10
-293.30238549486148
 20
-421.66809624171498
 30
0.0
 11
-279.33348499486152
 21
-421.66809624171498
 31
0.0
  0
ARC
  5
609
  8
DATA
  6
CONTINUOUS
 62
     7
 10
-293.73544099486151
 20
-414.37709624171481
 30
0.0
 40
2.3000000000000109
 50
90.0
 51
180.0
  0
LINE
  5
60A
  8
DATA
  6
CONTINUOUS
 62
     7
 10
-296.03544099486152
 20
-414.37709624171481
 30
0.0
 11
-295.00118849486148
 21
-420.24263674171488
 31
0.0
  0
ARC
  5
60B
  8
DATA
  6
CONTINUOUS
 62
     7
 10
-293.30238549486148
 20
-419.94309624171501
 30
0.0
 40
1.7249977019151019
 50
189.99992554960099
 51
270.0
  0
ARC
  5
60C
  8
DATA
  6
CONTINUOUS
 62
     7
 10
-278.90044099486153
 20
-414.37709624171481
 30
0.0
 40
2.2999999999999541
 50
0.0
 51
90.0
  0
LINE
  5
60D
  8
DATA
  6
CONTINUOUS
 62
     7
 10
-276.60044099486151
 20
-414.37709624171481
 30
0.0
 11
-277.63469349486138
 21
-420.24263674171488
 31
0.0
  0
ARC
  5
60E
  8
DATA
  6
CONTINUOUS
 62
     7
 10
-279.33348499486152
 20
-419.94309624171501
 30
0.0
 40
1.7250000000000221
 50
270.0
 51
350.00007445039932
  0
TEXT
  5
60F
  8
DATA
 62
     7
 10
-287.69117882497528
 20
-426.40494387895541
 30
0.0
 40
1.7314453125
  1
PC
 41
0.8
 11
-287.69117882497528
 21
-424.67349856645541
 31
0.0
 73
     3
  0
TEXT
  5
610
  8
DATA
 62
     7
 10
-210.08571480469129
 20
-425.2928229315462
 30
0.0
 40
1.7314453125
  1
LOAD
 41
0.8
 11
-210.08571480469129
 21
-423.56137761904608
 31
0.0
 73
     3
  0
TEXT
  5
611
  8
DATA
 62
     7
 10
-183.18358872959769
 20
-429.58244920201059
 30
0.0
 40
1.7314453125
  1
PROGRAM
 41
0.8
 11
-183.18358872959769
 21
-427.85100388951048
 31
0.0
 73
     3
  0
TEXT
  5
612
  8
DATA
 62
     7
 10
-162.59999999999999
 20
-415.0533671986596
 30
0.0
 40
1.7314453125
  1
UP
 41
0.8
 11
-162.59999999999999
 21
-413.3219218861596
 31
0.0
 73
     3
  0
TEXT
  5
613
  8
DATA
 62
     7
 10
-163.59999999999999
 20
-421.13636066778361
 30
0.0
 40
1.7314453125
  1
DOWN
 41
0.8
 11
-163.59999999999999
 21
-419.40491535528361
 31
0.0
 73
     3
  0
TEXT
  5
614
  8
DATA
 62
     7
 10
-143.75381530565821
 20
-412.96499999999992
 30
0.0
 40
2.1162109375
  1
CH1 
 41
0.8
 11
-143.75381530565821
 21
-410.84878906249992
 31
0.0
 73
     3
  0
TEXT
  5
615
  8
DATA
 62
     7
 10
-138.8216063275519
 20
-411.51999999999992
 30
0.0
 40
1.5390625
  1
FILTER
 41
0.8
 11
-138.8216063275519
 21
-409.98093749999992
 31
0.0
 73
     3
  0
TEXT
  5
616
  8
DATA
 62
     7
 10
-138.8216063275519
 20
-413.51999999999998
 30
0.0
 40
1.5390625
  1
CLEAR
 41
0.8
 11
-138.8216063275519
 21
-411.98093749999992
 31
0.0
 73
     3
  0
POLYLINE
  5
617
  8
DATA
  6
CONTINUOUS
 62
     7
 66
     1
 10
0.0
 20
0.0
 30
0.0
 70
   129
  0
VERTEX
  5
F0F
  8
DATA
  6
CONTINUOUS
 62
     7
 10
-144.5
 20
-410.15847387773681
 30
0.0
 42
-0.4142135623730784
  0
VERTEX
  5
F10
  8
DATA
  6
CONTINUOUS
 62
     7
 10
-143.5
 20
-409.15847387773692
 30
0.0
  0
VERTEX
  5
F11
  8
DATA
  6
CONTINUOUS
 62
     7
 10
-132.30000000000001
 20
-409.15847387773692
 30
0.0
 42
-0.4142135623730951
  0
VERTEX
  5
F12
  8
DATA
  6
CONTINUOUS
 62
     7
 10
-131.30000000000001
 20
-410.15847387773681
 30
0.0
  0
VERTEX
  5
F13
  8
DATA
  6
CONTINUOUS
 62
     7
 10
-131.30000000000001
 20
-413.55847387773679
 30
0.0
 42
-0.4142135623730951
  0
VERTEX
  5
F14
  8
DATA
  6
CONTINUOUS
 62
     7
 10
-132.30000000000001
 20
-414.55847387773679
 30
0.0
  0
VERTEX
  5
F15
  8
DATA
  6
CONTINUOUS
 62
     7
 10
-143.5
 20
-414.55847387773679
 30
0.0
 42
-0.4142135623730951
  0
VERTEX
  5
F16
  8
DATA
  6
CONTINUOUS
 62
     7
 10
-144.5
 20
-413.55847387773679
 30
0.0
  0
SEQEND
  5
F17
  8
DATA
  6
CONTINUOUS
 62
     7
  0
TEXT
  5
621
  8
DATA
 62
     7
 10
-143.75381530565821
 20
-423.33499999999992
 30
0.0
 40
2.1162109375
  1
CH2 
 41
0.8
 11
-143.75381530565821
 21
-421.21878906249992
 31
0.0
 73
     3
  0
TEXT
  5
622
  8
DATA
 62
     7
 10
-138.8216063275519
 20
-421.88999999999987
 30
0.0
 40
1.5390625
  1
FILTER
 41
0.8
 11
-138.8216063275519
 21
-420.35093749999999
 31
0.0
 73
     3
  0
TEXT
  5
623
  8
DATA
 62
     7
 10
-138.8216063275519
 20
-423.88999999999999
 30
0.0
 40
1.5390625
  1
CLEAR
 41
0.8
 11
-138.8216063275519
 21
-422.35093749999987
 31
0.0
 73
     3
  0
POLYLINE
  5
624
  8
DATA
  6
CONTINUOUS
 62
     7
 66
     1
 10
0.0
 20
0.0
 30
0.0
 70
   129
  0
VERTEX
  5
F18
  8
DATA
  6
CONTINUOUS
 62
     7
 10
-144.5
 20
-420.52847387773681
 30
0.0
 42
-0.4142135623731117
  0
VERTEX
  5
F19
  8
DATA
  6
CONTINUOUS
 62
     7
 10
-143.5
 20
-419.52847387773687
 30
0.0
  0
VERTEX
  5
F1A
  8
DATA
  6
CONTINUOUS
 62
     7
 10
-132.30000000000001
 20
-419.52847387773687
 30
0.0
 42
-0.4142135623730951
  0
VERTEX
  5
F1B
  8
DATA
  6
CONTINUOUS
 62
     7
 10
-131.30000000000001
 20
-420.52847387773681
 30
0.0
  0
VERTEX
  5
F1C
  8
DATA
  6
CONTINUOUS
 62
     7
 10
-131.30000000000001
 20
-423.92847387773691
 30
0.0
 42
-0.4142135623730951
  0
VERTEX
  5
F1D
  8
DATA
  6
CONTINUOUS
 62
     7
 10
-132.30000000000001
 20
-424.92847387773691
 30
0.0
  0
VERTEX
  5
F1E
  8
DATA
  6
CONTINUOUS
 62
     7
 10
-143.5
 20
-424.92847387773691
 30
0.0
 42
-0.4142135623730951
  0
VERTEX
  5
F1F
  8
DATA
  6
CONTINUOUS
 62
     7
 10
-144.5
 20
-423.92847387773691
 30
0.0
  0
SEQEND
  5
F20
  8
DATA
  6
CONTINUOUS
 62
     7
  0
LINE
  5
62E
  8
DATA
  6
CONTINUOUS
 62
     7
 10
-224.0
 20
-399.99900602370019
 30
0.0
 11
-126.0
 21
-399.99900602370019
 31
0.0
  0
LINE
  5
62F
  8
DATA
  6
CONTINUOUS
 62
     7
 10
-220.0
 20
-433.99900602370019
 30
0.0
 11
-130.0
 21
-433.99900602370019
 31
0.0
  0
LINE
  5
630
  8
DATA
  6
CONTINUOUS
 62
     7
 10
-224.0
 20
-399.99900602370019
 30
0.0
 11
-224.0
 21
-429.99900602370019
 31
0.0
  0
LINE
  5
631
  8
DATA
  6
CONTINUOUS
 62
     7
 10
-126.0
 20
-399.99900602370019
 30
0.0
 11
-126.0
 21
-429.99900602370019
 31
0.0
  0
POLYLINE
  5
632
  8
DATA
  6
CONTINUOUS
 62
     7
 66
     1
 10
0.0
 20
0.0
 30
0.0
 70
     1
  0
VERTEX
  5
F21
  8
DATA
  6
CONTINUOUS
 62
     7
 10
-38.381365711685831
 20
-410.96610448905312
 30
0.0
  0
VERTEX
  5
F22
  8
DATA
  6
CONTINUOUS
 62
     7
 10
-36.381365711685831
 20
-410.96610448905312
 30
0.0
  0
VERTEX
  5
F23
  8
DATA
  6
CONTINUOUS
 62
     7
 10
-36.381365711685831
 20
-412.96610448905301
 30
0.0
  0
VERTEX
  5
F24
  8
DATA
  6
CONTINUOUS
 62
     7
 10
-38.381365711685831
 20
-412.96610448905301
 30
0.0
  0
SEQEND
  5
F25
  8
DATA
  6
CONTINUOUS
 62
     7
  0
POLYLINE
  5
638
  8
DATA
  6
CONTINUOUS
 62
     7
 66
     1
 10
0.0
 20
0.0
 30
0.0
 70
     1
  0
VERTEX
  5
F26
  8
DATA
  6
CONTINUOUS
 62
     7
 10
-38.381365711685831
 20
-414.66610448905311
 30
0.0
  0
VERTEX
  5
F27
  8
DATA
  6
CONTINUOUS
 62
     7
 10
-36.381365711685831
 20
-414.66610448905311
 30
0.0
  0
VERTEX
  5
F28
  8
DATA
  6
CONTINUOUS
 62
     7
 10
-36.381365711685831
 20
-416.666104489053
 30
0.0
  0
VERTEX
  5
F29
  8
DATA
  6
CONTINUOUS
 62
     7
 10
-38.381365711685831
 20
-416.666104489053
 30
0.0
  0
SEQEND
  5
F2A
  8
DATA
  6
CONTINUOUS
 62
     7
  0
POLYLINE
  5
63E
  8
DATA
  6
CONTINUOUS
 62
     7
 66
     1
 10
0.0
 20
0.0
 30
0.0
 70
     1
  0
VERTEX
  5
F2B
  8
DATA
  6
CONTINUOUS
 62
     7
 10
-38.381365711685831
 20
-418.3661044890531
 30
0.0
  0
VERTEX
  5
F2C
  8
DATA
  6
CONTINUOUS
 62
     7
 10
-36.381365711685831
 20
-418.3661044890531
 30
0.0
  0
VERTEX
  5
F2D
  8
DATA
  6
CONTINUOUS
 62
     7
 10
-36.381365711685831
 20
-420.36610448905299
 30
0.0
  0
VERTEX
  5
F2E
  8
DATA
  6
CONTINUOUS
 62
     7
 10
-38.381365711685831
 20
-420.36610448905299
 30
0.0
  0
SEQEND
  5
F2F
  8
DATA
  6
CONTINUOUS
 62
     7
  0
POLYLINE
  5
644
  8
DATA
  6
CONTINUOUS
 62
     7
 66
     1
 10
0.0
 20
0.0
 30
0.0
 70
     1
  0
VERTEX
  5
F30
  8
DATA
  6
CONTINUOUS
 62
     7
 10
-38.381365711685831
 20
-422.06610448905309
 30
0.0
  0
VERTEX
  5
F31
  8
DATA
  6
CONTINUOUS
 62
     7
 10
-36.381365711685831
 20
-422.06610448905309
 30
0.0
  0
VERTEX
  5
F32
  8
DATA
  6
CONTINUOUS
 62
     7
 10
-36.381365711685831
 20
-424.0661044890532
 30
0.0
  0
VERTEX
  5
F33
  8
DATA
  6
CONTINUOUS
 62
     7
 10
-38.381365711685831
 20
-424.0661044890532
 30
0.0
  0
SEQEND
  5
F34
  8
DATA
  6
CONTINUOUS
 62
     7
  0
POLYLINE
  5
64A
  8
DATA
  6
CONTINUOUS
 62
     7
 66
     1
 10
0.0
 20
0.0
 30
0.0
 70
     1
  0
VERTEX
  5
F35
  8
DATA
  6
CONTINUOUS
 62
     7
 10
-38.381365711685831
 20
-425.76610448905302
 30
0.0
  0
VERTEX
  5
F36
  8
DATA
  6
CONTINUOUS
 62
     7
 10
-36.381365711685831
 20
-425.76610448905302
 30
0.0
  0
VERTEX
  5
F37
  8
DATA
  6
CONTINUOUS
 62
     7
 10
-36.381365711685831
 20
-427.76610448905308
 30
0.0
  0
VERTEX
  5
F38
  8
DATA
  6
CONTINUOUS
 62
     7
 10
-38.381365711685831
 20
-427.76610448905308
 30
0.0
  0
SEQEND
  5
F39
  8
DATA
  6
CONTINUOUS
 62
     7
  0
POLYLINE
  5
650
  8
DATA
  6
CONTINUOUS
 62
     7
 66
     1
 10
0.0
 20
0.0
 30
0.0
 70
     1
  0
VERTEX
  5
F3A
  8
DATA
  6
CONTINUOUS
 62
     7
 10
-38.381365711685831
 20
-429.46610448905301
 30
0.0
  0
VERTEX
  5
F3B
  8
DATA
  6
CONTINUOUS
 62
     7
 10
-36.381365711685831
 20
-429.46610448905301
 30
0.0
  0
VERTEX
  5
F3C
  8
DATA
  6
CONTINUOUS
 62
     7
 10
-36.381365711685831
 20
-431.46610448905312
 30
0.0
  0
VERTEX
  5
F3D
  8
DATA
  6
CONTINUOUS
 62
     7
 10
-38.381365711685831
 20
-431.46610448905312
 30
0.0
  0
SEQEND
  5
F3E
  8
DATA
  6
CONTINUOUS
 62
     7
  0
POLYLINE
  5
656
  8
DATA
  6
CONTINUOUS
 62
     7
 66
     1
 10
0.0
 20
0.0
 30
0.0
 70
     1
  0
VERTEX
  5
F3F
  8
DATA
  6
CONTINUOUS
 62
     7
 10
-28.58136571168582
 20
-410.96610448905312
 30
0.0
  0
VERTEX
  5
F40
  8
DATA
  6
CONTINUOUS
 62
     7
 10
-26.58136571168582
 20
-410.96610448905312
 30
0.0
  0
VERTEX
  5
F41
  8
DATA
  6
CONTINUOUS
 62
     7
 10
-26.58136571168582
 20
-412.96610448905301
 30
0.0
  0
VERTEX
  5
F42
  8
DATA
  6
CONTINUOUS
 62
     7
 10
-28.58136571168582
 20
-412.96610448905301
 30
0.0
  0
SEQEND
  5
F43
  8
DATA
  6
CONTINUOUS
 62
     7
  0
POLYLINE
  5
65C
  8
DATA
  6
CONTINUOUS
 62
     7
 66
     1
 10
0.0
 20
0.0
 30
0.0
 70
     1
  0
VERTEX
  5
F44
  8
DATA
  6
CONTINUOUS
 62
     7
 10
-28.58136571168582
 20
-414.66610448905311
 30
0.0
  0
VERTEX
  5
F45
  8
DATA
  6
CONTINUOUS
 62
     7
 10
-26.58136571168582
 20
-414.66610448905311
 30
0.0
  0
VERTEX
  5
F46
  8
DATA
  6
CONTINUOUS
 62
     7
 10
-26.58136571168582
 20
-416.666104489053
 30
0.0
  0
VERTEX
  5
F47
  8
DATA
  6
CONTINUOUS
 62
     7
 10
-28.58136571168582
 20
-416.666104489053
 30
0.0
  0
SEQEND
  5
F48
  8
DATA
  6
CONTINUOUS
 62
     7
  0
POLYLINE
  5
662
  8
DATA
  6
CONTINUOUS
 62
     7
 66
     1
 10
0.0
 20
0.0
 30
0.0
 70
     1
  0
VERTEX
  5
F49
  8
DATA
  6
CONTINUOUS
 62
     7
 10
-28.58136571168582
 20
-418.3661044890531
 30
0.0
  0
VERTEX
  5
F4A
  8
DATA
  6
CONTINUOUS
 62
     7
 10
-26.58136571168582
 20
-418.3661044890531
 30
0.0
  0
VERTEX
  5
F4B
  8
DATA
  6
CONTINUOUS
 62
     7
 10
-26.58136571168582
 20
-420.36610448905299
 30
0.0
  0
VERTEX
  5
F4C
  8
DATA
  6
CONTINUOUS
 62
     7
 10
-28.58136571168582
 20
-420.36610448905299
 30
0.0
  0
SEQEND
  5
F4D
  8
DATA
  6
CONTINUOUS
 62
     7
  0
POLYLINE
  5
668
  8
DATA
  6
CONTINUOUS
 62
     7
 66
     1
 10
0.0
 20
0.0
 30
0.0
 70
     1
  0
VERTEX
  5
F4E
  8
DATA
  6
CONTINUOUS
 62
     7
 10
-28.58136571168582
 20
-422.06610448905309
 30
0.0
  0
VERTEX
  5
F4F
  8
DATA
  6
CONTINUOUS
 62
     7
 10
-26.58136571168582
 20
-422.06610448905309
 30
0.0
  0
VERTEX
  5
F50
  8
DATA
  6
CONTINUOUS
 62
     7
 10
-26.58136571168582
 20
-424.0661044890532
 30
0.0
  0
VERTEX
  5
F51
  8
DATA
  6
CONTINUOUS
 62
     7
 10
-28.58136571168582
 20
-424.0661044890532
 30
0.0
  0
SEQEND
  5
F52
  8
DATA
  6
CONTINUOUS
 62
     7
  0
POLYLINE
  5
66E
  8
DATA
  6
CONTINUOUS
 62
     7
 66
     1
 10
0.0
 20
0.0
 30
0.0
 70
     1
  0
VERTEX
  5
F53
  8
DATA
  6
CONTINUOUS
 62
     7
 10
-28.58136571168582
 20
-425.76610448905302
 30
0.0
  0
VERTEX
  5
F54
  8
DATA
  6
CONTINUOUS
 62
     7
 10
-26.58136571168582
 20
-425.76610448905302
 30
0.0
  0
VERTEX
  5
F55
  8
DATA
  6
CONTINUOUS
 62
     7
 10
-26.58136571168582
 20
-427.76610448905308
 30
0.0
  0
VERTEX
  5
F56
  8
DATA
  6
CONTINUOUS
 62
     7
 10
-28.58136571168582
 20
-427.76610448905308
 30
0.0
  0
SEQEND
  5
F57
  8
DATA
  6
CONTINUOUS
 62
     7
  0
POLYLINE
  5
674
  8
DATA
  6
CONTINUOUS
 62
     7
 66
     1
 10
0.0
 20
0.0
 30
0.0
 70
     1
  0
VERTEX
  5
F58
  8
DATA
  6
CONTINUOUS
 62
     7
 10
-28.58136571168582
 20
-429.46610448905301
 30
0.0
  0
VERTEX
  5
F59
  8
DATA
  6
CONTINUOUS
 62
     7
 10
-26.58136571168582
 20
-429.46610448905301
 30
0.0
  0
VERTEX
  5
F5A
  8
DATA
  6
CONTINUOUS
 62
     7
 10
-26.58136571168582
 20
-431.46610448905312
 30
0.0
  0
VERTEX
  5
F5B
  8
DATA
  6
CONTINUOUS
 62
     7
 10
-28.58136571168582
 20
-431.46610448905312
 30
0.0
  0
SEQEND
  5
F5C
  8
DATA
  6
CONTINUOUS
 62
     7
  0
POLYLINE
  5
67A
  8
DATA
  6
CONTINUOUS
 62
     7
 66
     1
 10
0.0
 20
0.0
 30
0.0
 70
   129
  0
VERTEX
  5
F5D
  8
DATA
  6
CONTINUOUS
 62
     7
 10
-42.981365711685839
 20
-406.21610448905301
 30
0.0
  0
VERTEX
  5
F5E
  8
DATA
  6
CONTINUOUS
 62
     7
 10
-21.981365711685861
 20
-406.21610448905301
 30
0.0
  0
VERTEX
  5
F5F
  8
DATA
  6
CONTINUOUS
 62
     7
 10
-21.981365711685861
 20
-432.44610448905308
 30
0.0
 42
-0.4142135623730951
  0
VERTEX
  5
F60
  8
DATA
  6
CONTINUOUS
 62
     7
 10
-26.981365711685861
 20
-437.44610448905308
 30
0.0
  0
VERTEX
  5
F61
  8
DATA
  6
CONTINUOUS
 62
     7
 10
-37.981365711685861
 20
-437.44610448905308
 30
0.0
 42
-0.4142135623730943
  0
VERTEX
  5
F62
  8
DATA
  6
CONTINUOUS
 62
     7
 10
-42.981365711685839
 20
-432.44610448905308
 30
0.0
  0
SEQEND
  5
F63
  8
DATA
  6
CONTINUOUS
 62
     7
  0
LINE
  5
682
  8
DATA
  6
CONTINUOUS
 62
     7
 10
-42.981365711685839
 20
-398.41610448905323
 30
0.0
 11
-21.981365711685861
 21
-398.41610448905323
 31
0.0
  0
LINE
  5
683
  8
DATA
  6
CONTINUOUS
 62
     7
 10
-42.981365711685839
 20
-398.41610448905323
 30
0.0
 11
-21.981365711685861
 21
-398.41610448905323
 31
0.0
  0
LINE
  5
684
  8
DATA
  6
CONTINUOUS
 62
     7
 10
-21.981365711685861
 20
-398.41610448905323
 30
0.0
 11
-21.981365711685861
 21
-405.416104489053
 31
0.0
  0
LINE
  5
685
  8
DATA
  6
CONTINUOUS
 62
     7
 10
-21.981365711685861
 20
-405.416104489053
 30
0.0
 11
-23.181365711685839
 21
-405.416104489053
 31
0.0
  0
LINE
  5
686
  8
DATA
  6
CONTINUOUS
 62
     7
 10
-23.181365711685839
 20
-405.416104489053
 30
0.0
 11
-23.181365711685839
 21
-401.21610448905312
 31
0.0
  0
LINE
  5
687
  8
DATA
  6
CONTINUOUS
 62
     7
 10
-23.181365711685839
 20
-401.21610448905312
 30
0.0
 11
-41.781365711685858
 21
-401.21610448905312
 31
0.0
  0
LINE
  5
688
  8
DATA
  6
CONTINUOUS
 62
     7
 10
-41.781365711685858
 20
-401.21610448905312
 30
0.0
 11
-41.781365711685858
 21
-405.416104489053
 31
0.0
  0
LINE
  5
689
  8
DATA
  6
CONTINUOUS
 62
     7
 10
-41.781365711685858
 20
-405.416104489053
 30
0.0
 11
-42.981365711685839
 21
-405.416104489053
 31
0.0
  0
LINE
  5
68A
  8
DATA
  6
CONTINUOUS
 62
     7
 10
-42.981365711685839
 20
-405.416104489053
 30
0.0
 11
-42.981365711685839
 21
-398.41610448905323
 31
0.0
  0
ARC
  5
68B
  8
DATA
  6
CONTINUOUS
 62
     7
 10
-37.381365711685831
 20
-431.9528529186706
 30
0.0
 40
2.0
 50
179.99999999999829
 51
0.0000000000016485
  0
ARC
  5
68C
  8
DATA
  6
CONTINUOUS
 62
     7
 10
-37.381365711685831
 20
-410.96610448905312
 30
0.0
 40
2.0113369265915102
 50
6.0862121589731171
 51
173.9137878410269
  0
LINE
  5
68D
  8
DATA
  6
CONTINUOUS
 62
     7
 10
-39.381365711685831
 20
-410.75285291867073
 30
0.0
 11
-39.381365711685831
 21
-431.9528529186706
 31
0.0
  0
LINE
  5
68E
  8
DATA
  6
CONTINUOUS
 62
     7
 10
-35.381365711685831
 20
-431.9528529186706
 30
0.0
 11
-35.381365711685831
 21
-410.71709846535282
 31
0.0
  0
ARC
  5
68F
  8
DATA
  6
CONTINUOUS
 62
     7
 10
-27.58136571168583
 20
-431.9528529186706
 30
0.0
 40
1.9999999999999849
 50
179.99999999999829
 51
0.0000000000016485
  0
ARC
  5
690
  8
DATA
  6
CONTINUOUS
 62
     7
 10
-27.58136571168582
 20
-410.96610448905312
 30
0.0
 40
2.0113369265915102
 50
6.0862121589731171
 51
173.9137878410269
  0
LINE
  5
691
  8
DATA
  6
CONTINUOUS
 62
     7
 10
-29.58136571168582
 20
-410.75285291867073
 30
0.0
 11
-29.58136571168582
 21
-431.9528529186706
 31
0.0
  0
LINE
  5
692
  8
DATA
  6
CONTINUOUS
 62
     7
 10
-25.58136571168582
 20
-431.9528529186706
 30
0.0
 11
-25.58136571168582
 21
-410.71709846535282
 31
0.0
  0
TEXT
  5
693
  8
DATA
 62
     7
 10
-37.563686134350696
 20
-400.65802692476802
 30
0.0
 40
1.7314453125
  1
INPUT dBu
 41
0.8
 11
-37.563686134350696
 21
-398.92658161226808
 31
0.0
 73
     3
  0
LINE
  5
694
  8
DATA
  6
CONTINUOUS
 62
     7
 10
-38.140068138158938
 20
-399.81709846535301
 30
0.0
 11
-42.240068138158932
 21
-399.81709846535301
 31
0.0
  0
TEXT
  5
695
  8
DATA
 62
     7
 10
-39.22964527181486
 20
-436.33589003259289
 30
0.0
 40
1.5390625
  1
CH 1
 41
0.8
 11
-39.22964527181486
 21
-434.79682753259289
 31
0.0
 73
     3
  0
TEXT
  5
696
  8
DATA
 62
     7
 10
-29.652958549724168
 20
-436.2702303932262
 30
0.0
 40
1.5390625
  1
CH 2
 41
0.8
 11
-29.652958549724168
 21
-434.73116789322631
 31
0.0
 73
     3
  0
TEXT
  5
697
  8
DATA
 62
     7
 10
-33.381107733016208
 20
-412.5140676693527
 30
0.0
 40
1.154296875
  1
+20
 41
0.8
 11
-33.381107733016208
 21
-411.3597707943527
 31
0.0
 73
     3
  0
TEXT
  5
698
  8
DATA
 62
     7
 10
-33.381107733016208
 20
-416.21406766935269
 30
0.0
 40
1.154296875
  1
+15
 41
0.8
 11
-33.381107733016208
 21
-415.05977079435269
 31
0.0
 73
     3
  0
TEXT
  5
699
  8
DATA
 62
     7
 10
-33.381107733016208
 20
-419.91406766935268
 30
0.0
 40
1.154296875
  1
+10
 41
0.8
 11
-33.381107733016208
 21
-418.75977079435268
 31
0.0
 73
     3
  0
TEXT
  5
69A
  8
DATA
 62
     7
 10
-33.087081336444697
 20
-423.61406766935272
 30
0.0
 40
1.154296875
  1
+5
 41
0.8
 11
-33.087081336444697
 21
-422.45977079435272
 31
0.0
 73
     3
  0
TEXT
  5
69B
  8
DATA
 62
     7
 10
-32.64604174158741
 20
-427.31406766935271
 30
0.0
 40
1.154296875
  1
0
 41
0.8
 11
-32.64604174158741
 21
-426.1597707943526
 31
0.0
 73
     3
  0
TEXT
  5
69C
  8
DATA
 62
     7
 10
-33.381107733016208
 20
-431.0140676693527
 30
0.0
 40
1.154296875
  1
-30
 41
0.8
 11
-33.381107733016208
 21
-429.85977079435258
 31
0.0
 73
     3
  0
LINE
  5
69D
  8
DATA
  6
CONTINUOUS
 62
     7
 10
-22.740068138158929
 20
-399.95881020362492
 30
0.0
 11
-25.890068138158931
 21
-399.95881020362492
 31
0.0
  0
POLYLINE
  5
69E
  8
DATA
  6
CONTINUOUS
 62
     7
 66
     1
 10
0.0
 20
0.0
 30
0.0
 70
     1
  0
VERTEX
  5
F64
  8
DATA
  6
CONTINUOUS
 62
     7
 10
-4.38136571168583
 20
-410.96610448905312
 30
0.0
  0
VERTEX
  5
F65
  8
DATA
  6
CONTINUOUS
 62
     7
 10
-2.38136571168583
 20
-410.96610448905312
 30
0.0
  0
VERTEX
  5
F66
  8
DATA
  6
CONTINUOUS
 62
     7
 10
-2.38136571168583
 20
-412.96610448905301
 30
0.0
  0
VERTEX
  5
F67
  8
DATA
  6
CONTINUOUS
 62
     7
 10
-4.38136571168583
 20
-412.96610448905301
 30
0.0
  0
SEQEND
  5
F68
  8
DATA
  6
CONTINUOUS
 62
     7
  0
POLYLINE
  5
6A4
  8
DATA
  6
CONTINUOUS
 62
     7
 66
     1
 10
0.0
 20
0.0
 30
0.0
 70
     1
  0
VERTEX
  5
F69
  8
DATA
  6
CONTINUOUS
 62
     7
 10
-4.38136571168583
 20
-414.66610448905311
 30
0.0
  0
VERTEX
  5
F6A
  8
DATA
  6
CONTINUOUS
 62
     7
 10
-2.38136571168583
 20
-414.66610448905311
 30
0.0
  0
VERTEX
  5
F6B
  8
DATA
  6
CONTINUOUS
 62
     7
 10
-2.38136571168583
 20
-416.666104489053
 30
0.0
  0
VERTEX
  5
F6C
  8
DATA
  6
CONTINUOUS
 62
     7
 10
-4.38136571168583
 20
-416.666104489053
 30
0.0
  0
SEQEND
  5
F6D
  8
DATA
  6
CONTINUOUS
 62
     7
  0
POLYLINE
  5
6AA
  8
DATA
  6
CONTINUOUS
 62
     7
 66
     1
 10
0.0
 20
0.0
 30
0.0
 70
     1
  0
VERTEX
  5
F6E
  8
DATA
  6
CONTINUOUS
 62
     7
 10
-4.38136571168583
 20
-418.3661044890531
 30
0.0
  0
VERTEX
  5
F6F
  8
DATA
  6
CONTINUOUS
 62
     7
 10
-2.38136571168583
 20
-418.3661044890531
 30
0.0
  0
VERTEX
  5
F70
  8
DATA
  6
CONTINUOUS
 62
     7
 10
-2.38136571168583
 20
-420.36610448905299
 30
0.0
  0
VERTEX
  5
F71
  8
DATA
  6
CONTINUOUS
 62
     7
 10
-4.38136571168583
 20
-420.36610448905299
 30
0.0
  0
SEQEND
  5
F72
  8
DATA
  6
CONTINUOUS
 62
     7
  0
POLYLINE
  5
6B0
  8
DATA
  6
CONTINUOUS
 62
     7
 66
     1
 10
0.0
 20
0.0
 30
0.0
 70
     1
  0
VERTEX
  5
F73
  8
DATA
  6
CONTINUOUS
 62
     7
 10
-4.38136571168583
 20
-422.06610448905309
 30
0.0
  0
VERTEX
  5
F74
  8
DATA
  6
CONTINUOUS
 62
     7
 10
-2.38136571168583
 20
-422.06610448905309
 30
0.0
  0
VERTEX
  5
F75
  8
DATA
  6
CONTINUOUS
 62
     7
 10
-2.38136571168583
 20
-424.0661044890532
 30
0.0
  0
VERTEX
  5
F76
  8
DATA
  6
CONTINUOUS
 62
     7
 10
-4.38136571168583
 20
-424.0661044890532
 30
0.0
  0
SEQEND
  5
F77
  8
DATA
  6
CONTINUOUS
 62
     7
  0
POLYLINE
  5
6B6
  8
DATA
  6
CONTINUOUS
 62
     7
 66
     1
 10
0.0
 20
0.0
 30
0.0
 70
     1
  0
VERTEX
  5
F78
  8
DATA
  6
CONTINUOUS
 62
     7
 10
-4.38136571168583
 20
-425.76610448905302
 30
0.0
  0
VERTEX
  5
F79
  8
DATA
  6
CONTINUOUS
 62
     7
 10
-2.38136571168583
 20
-425.76610448905302
 30
0.0
  0
VERTEX
  5
F7A
  8
DATA
  6
CONTINUOUS
 62
     7
 10
-2.38136571168583
 20
-427.76610448905308
 30
0.0
  0
VERTEX
  5
F7B
  8
DATA
  6
CONTINUOUS
 62
     7
 10
-4.38136571168583
 20
-427.76610448905308
 30
0.0
  0
SEQEND
  5
F7C
  8
DATA
  6
CONTINUOUS
 62
     7
  0
POLYLINE
  5
6BC
  8
DATA
  6
CONTINUOUS
 62
     7
 66
     1
 10
0.0
 20
0.0
 30
0.0
 70
     1
  0
VERTEX
  5
F7D
  8
DATA
  6
CONTINUOUS
 62
     7
 10
-4.38136571168583
 20
-429.46610448905301
 30
0.0
  0
VERTEX
  5
F7E
  8
DATA
  6
CONTINUOUS
 62
     7
 10
-2.38136571168583
 20
-429.46610448905301
 30
0.0
  0
VERTEX
  5
F7F
  8
DATA
  6
CONTINUOUS
 62
     7
 10
-2.38136571168583
 20
-431.46610448905312
 30
0.0
  0
VERTEX
  5
F80
  8
DATA
  6
CONTINUOUS
 62
     7
 10
-4.38136571168583
 20
-431.46610448905312
 30
0.0
  0
SEQEND
  5
F81
  8
DATA
  6
CONTINUOUS
 62
     7
  0
POLYLINE
  5
6C2
  8
DATA
  6
CONTINUOUS
 62
     7
 66
     1
 10
0.0
 20
0.0
 30
0.0
 70
     1
  0
VERTEX
  5
F82
  8
DATA
  6
CONTINUOUS
 62
     7
 10
5.4186342883141796
 20
-410.96610448905312
 30
0.0
  0
VERTEX
  5
F83
  8
DATA
  6
CONTINUOUS
 62
     7
 10
7.4186342883141787
 20
-410.96610448905312
 30
0.0
  0
VERTEX
  5
F84
  8
DATA
  6
CONTINUOUS
 62
     7
 10
7.4186342883141787
 20
-412.96610448905301
 30
0.0
  0
VERTEX
  5
F85
  8
DATA
  6
CONTINUOUS
 62
     7
 10
5.4186342883141796
 20
-412.96610448905301
 30
0.0
  0
SEQEND
  5
F86
  8
DATA
  6
CONTINUOUS
 62
     7
  0
POLYLINE
  5
6C8
  8
DATA
  6
CONTINUOUS
 62
     7
 66
     1
 10
0.0
 20
0.0
 30
0.0
 70
     1
  0
VERTEX
  5
F87
  8
DATA
  6
CONTINUOUS
 62
     7
 10
5.4186342883141796
 20
-414.66610448905311
 30
0.0
  0
VERTEX
  5
F88
  8
DATA
  6
CONTINUOUS
 62
     7
 10
7.4186342883141787
 20
-414.66610448905311
 30
0.0
  0
VERTEX
  5
F89
  8
DATA
  6
CONTINUOUS
 62
     7
 10
7.4186342883141787
 20
-416.666104489053
 30
0.0
  0
VERTEX
  5
F8A
  8
DATA
  6
CONTINUOUS
 62
     7
 10
5.4186342883141796
 20
-416.666104489053
 30
0.0
  0
SEQEND
  5
F8B
  8
DATA
  6
CONTINUOUS
 62
     7
  0
POLYLINE
  5
6CE
  8
DATA
  6
CONTINUOUS
 62
     7
 66
     1
 10
0.0
 20
0.0
 30
0.0
 70
     1
  0
VERTEX
  5
F8C
  8
DATA
  6
CONTINUOUS
 62
     7
 10
5.4186342883141796
 20
-418.3661044890531
 30
0.0
  0
VERTEX
  5
F8D
  8
DATA
  6
CONTINUOUS
 62
     7
 10
7.4186342883141787
 20
-418.3661044890531
 30
0.0
  0
VERTEX
  5
F8E
  8
DATA
  6
CONTINUOUS
 62
     7
 10
7.4186342883141787
 20
-420.36610448905299
 30
0.0
  0
VERTEX
  5
F8F
  8
DATA
  6
CONTINUOUS
 62
     7
 10
5.4186342883141796
 20
-420.36610448905299
 30
0.0
  0
SEQEND
  5
F90
  8
DATA
  6
CONTINUOUS
 62
     7
  0
POLYLINE
  5
6D4
  8
DATA
  6
CONTINUOUS
 62
     7
 66
     1
 10
0.0
 20
0.0
 30
0.0
 70
     1
  0
VERTEX
  5
F91
  8
DATA
  6
CONTINUOUS
 62
     7
 10
5.4186342883141796
 20
-422.06610448905309
 30
0.0
  0
VERTEX
  5
F92
  8
DATA
  6
CONTINUOUS
 62
     7
 10
7.4186342883141787
 20
-422.06610448905309
 30
0.0
  0
VERTEX
  5
F93
  8
DATA
  6
CONTINUOUS
 62
     7
 10
7.4186342883141787
 20
-424.0661044890532
 30
0.0
  0
VERTEX
  5
F94
  8
DATA
  6
CONTINUOUS
 62
     7
 10
5.4186342883141796
 20
-424.0661044890532
 30
0.0
  0
SEQEND
  5
F95
  8
DATA
  6
CONTINUOUS
 62
     7
  0
POLYLINE
  5
6DA
  8
DATA
  6
CONTINUOUS
 62
     7
 66
     1
 10
0.0
 20
0.0
 30
0.0
 70
     1
  0
VERTEX
  5
F96
  8
DATA
  6
CONTINUOUS
 62
     7
 10
5.4186342883141796
 20
-425.76610448905302
 30
0.0
  0
VERTEX
  5
F97
  8
DATA
  6
CONTINUOUS
 62
     7
 10
7.4186342883141787
 20
-425.76610448905302
 30
0.0
  0
VERTEX
  5
F98
  8
DATA
  6
CONTINUOUS
 62
     7
 10
7.4186342883141787
 20
-427.76610448905308
 30
0.0
  0
VERTEX
  5
F99
  8
DATA
  6
CONTINUOUS
 62
     7
 10
5.4186342883141796
 20
-427.76610448905308
 30
0.0
  0
SEQEND
  5
F9A
  8
DATA
  6
CONTINUOUS
 62
     7
  0
POLYLINE
  5
6E0
  8
DATA
  6
CONTINUOUS
 62
     7
 66
     1
 10
0.0
 20
0.0
 30
0.0
 70
     1
  0
VERTEX
  5
F9B
  8
DATA
  6
CONTINUOUS
 62
     7
 10
5.4186342883141796
 20
-429.46610448905301
 30
0.0
  0
VERTEX
  5
F9C
  8
DATA
  6
CONTINUOUS
 62
     7
 10
7.4186342883141787
 20
-429.46610448905301
 30
0.0
  0
VERTEX
  5
F9D
  8
DATA
  6
CONTINUOUS
 62
     7
 10
7.4186342883141787
 20
-431.46610448905312
 30
0.0
  0
VERTEX
  5
F9E
  8
DATA
  6
CONTINUOUS
 62
     7
 10
5.4186342883141796
 20
-431.46610448905312
 30
0.0
  0
SEQEND
  5
F9F
  8
DATA
  6
CONTINUOUS
 62
     7
  0
POLYLINE
  5
6E6
  8
DATA
  6
CONTINUOUS
 62
     7
 66
     1
 10
0.0
 20
0.0
 30
0.0
 70
   129
  0
VERTEX
  5
FA0
  8
DATA
  6
CONTINUOUS
 62
     7
 10
-8.9813657116858536
 20
-406.21610448905301
 30
0.0
  0
VERTEX
  5
FA1
  8
DATA
  6
CONTINUOUS
 62
     7
 10
12.018634288314139
 20
-406.21610448905301
 30
0.0
  0
VERTEX
  5
FA2
  8
DATA
  6
CONTINUOUS
 62
     7
 10
12.018634288314139
 20
-432.44610448905308
 30
0.0
 42
-0.4142135623730951
  0
VERTEX
  5
FA3
  8
DATA
  6
CONTINUOUS
 62
     7
 10
7.0186342883141446
 20
-437.44610448905308
 30
0.0
  0
VERTEX
  5
FA4
  8
DATA
  6
CONTINUOUS
 62
     7
 10
-3.9813657116858532
 20
-437.44610448905308
 30
0.0
 42
-0.4142135623730943
  0
VERTEX
  5
FA5
  8
DATA
  6
CONTINUOUS
 62
     7
 10
-8.9813657116858536
 20
-432.44610448905308
 30
0.0
  0
SEQEND
  5
FA6
  8
DATA
  6
CONTINUOUS
 62
     7
  0
LINE
  5
6EE
  8
DATA
  6
CONTINUOUS
 62
     7
 10
-8.9813657116858536
 20
-398.41610448905323
 30
0.0
 11
12.018634288314139
 21
-398.41610448905323
 31
0.0
  0
LINE
  5
6EF
  8
DATA
  6
CONTINUOUS
 62
     7
 10
-8.9813657116858536
 20
-398.41610448905323
 30
0.0
 11
12.018634288314139
 21
-398.41610448905323
 31
0.0
  0
LINE
  5
6F0
  8
DATA
  6
CONTINUOUS
 62
     7
 10
12.018634288314139
 20
-398.41610448905323
 30
0.0
 11
12.018634288314139
 21
-405.416104489053
 31
0.0
  0
LINE
  5
6F1
  8
DATA
  6
CONTINUOUS
 62
     7
 10
12.018634288314139
 20
-405.416104489053
 30
0.0
 11
10.81863428831416
 21
-405.416104489053
 31
0.0
  0
LINE
  5
6F2
  8
DATA
  6
CONTINUOUS
 62
     7
 10
10.81863428831416
 20
-405.416104489053
 30
0.0
 11
10.81863428831416
 21
-401.21610448905312
 31
0.0
  0
LINE
  5
6F3
  8
DATA
  6
CONTINUOUS
 62
     7
 10
10.81863428831416
 20
-401.21610448905312
 30
0.0
 11
-7.7813657116858641
 21
-401.21610448905312
 31
0.0
  0
LINE
  5
6F4
  8
DATA
  6
CONTINUOUS
 62
     7
 10
-7.7813657116858641
 20
-401.21610448905312
 30
0.0
 11
-7.7813657116858641
 21
-405.416104489053
 31
0.0
  0
LINE
  5
6F5
  8
DATA
  6
CONTINUOUS
 62
     7
 10
-7.7813657116858641
 20
-405.416104489053
 30
0.0
 11
-8.9813657116858536
 21
-405.416104489053
 31
0.0
  0
LINE
  5
6F6
  8
DATA
  6
CONTINUOUS
 62
     7
 10
-8.9813657116858536
 20
-405.416104489053
 30
0.0
 11
-8.9813657116858536
 21
-398.41610448905323
 31
0.0
  0
ARC
  5
6F7
  8
DATA
  6
CONTINUOUS
 62
     7
 10
-3.38136571168583
 20
-431.9528529186706
 30
0.0
 40
2.0
 50
179.99999999999829
 51
0.0000000000016485
  0
ARC
  5
6F8
  8
DATA
  6
CONTINUOUS
 62
     7
 10
-3.38136571168583
 20
-410.96610448905312
 30
0.0
 40
2.0113369265915102
 50
6.0862121589731171
 51
173.9137878410269
  0
LINE
  5
6F9
  8
DATA
  6
CONTINUOUS
 62
     7
 10
-5.38136571168583
 20
-410.75285291867073
 30
0.0
 11
-5.38136571168583
 21
-431.9528529186706
 31
0.0
  0
LINE
  5
6FA
  8
DATA
  6
CONTINUOUS
 62
     7
 10
-1.38136571168583
 20
-431.9528529186706
 30
0.0
 11
-1.38136571168583
 21
-410.71709846535282
 31
0.0
  0
ARC
  5
6FB
  8
DATA
  6
CONTINUOUS
 62
     7
 10
6.4186342883141663
 20
-431.9528529186706
 30
0.0
 40
1.9999999999999849
 50
179.99999999999829
 51
0.0000000000016485
  0
ARC
  5
6FC
  8
DATA
  6
CONTINUOUS
 62
     7
 10
6.4186342883141796
 20
-410.96610448905312
 30
0.0
 40
2.0113369265915102
 50
6.0862121589731171
 51
173.9137878410269
  0
LINE
  5
6FD
  8
DATA
  6
CONTINUOUS
 62
     7
 10
4.4186342883141796
 20
-410.75285291867073
 30
0.0
 11
4.4186342883141796
 21
-431.9528529186706
 31
0.0
  0
LINE
  5
6FE
  8
DATA
  6
CONTINUOUS
 62
     7
 10
8.4186342883141787
 20
-431.9528529186706
 30
0.0
 11
8.4186342883141787
 21
-410.71709846535282
 31
0.0
  0
TEXT
  5
6FF
  8
DATA
 62
     7
 10
-3.5913819540649281
 20
-400.69153483813932
 30
0.0
 40
1.7314453125
  1
THRESHOLD
 41
0.8
 11
-3.5913819540649281
 21
-398.96008952563932
 31
0.0
 73
     3
  0
TEXT
  5
700
  8
DATA
 62
     7
 10
-5.2296452718148601
 20
-436.33589003259289
 30
0.0
 40
1.5390625
  1
CH 1
 41
0.8
 11
-5.2296452718148601
 21
-434.79682753259289
 31
0.0
 73
     3
  0
TEXT
  5
701
  8
DATA
 62
     7
 10
4.3470414502758237
 20
-436.2702303932262
 30
0.0
 40
1.5390625
  1
CH 2
 41
0.8
 11
4.3470414502758237
 21
-434.73116789322631
 31
0.0
 73
     3
  0
TEXT
  5
702
  8
DATA
 62
     7
 10
0.6188922669837921
 20
-412.5140676693527
 30
0.0
 40
1.154296875
  1
+20
 41
0.8
 11
0.6188922669837922
 21
-411.3597707943527
 31
0.0
 73
     3
  0
TEXT
  5
703
  8
DATA
 62
     7
 10
0.6188922669837921
 20
-416.21406766935269
 30
0.0
 40
1.154296875
  1
+15
 41
0.8
 11
0.6188922669837922
 21
-415.05977079435269
 31
0.0
 73
     3
  0
TEXT
  5
704
  8
DATA
 62
     7
 10
0.6188922669837921
 20
-419.91406766935268
 30
0.0
 40
1.154296875
  1
+10
 41
0.8
 11
0.6188922669837922
 21
-418.75977079435268
 31
0.0
 73
     3
  0
TEXT
  5
705
  8
DATA
 62
     7
 10
0.9129186635553024
 20
-423.61406766935272
 30
0.0
 40
1.154296875
  1
+5
 41
0.8
 11
0.9129186635553026
 21
-422.45977079435272
 31
0.0
 73
     3
  0
TEXT
  5
706
  8
DATA
 62
     7
 10
1.3539582584125891
 20
-427.31406766935271
 30
0.0
 40
1.154296875
  1
0
 41
0.8
 11
1.3539582584125891
 21
-426.1597707943526
 31
0.0
 73
     3
  0
TEXT
  5
707
  8
DATA
 62
     7
 10
0.6188922669837921
 20
-431.0140676693527
 30
0.0
 40
1.154296875
  1
-30
 41
0.8
 11
0.6188922669837922
 21
-429.85977079435258
 31
0.0
 73
     3
  0
POLYLINE
  5
708
  8
DATA
  6
CONTINUOUS
 62
     7
 66
     1
 10
0.0
 20
0.0
 30
0.0
 70
     1
  0
VERTEX
  5
FA7
  8
DATA
  6
CONTINUOUS
 62
     7
 10
-4.38136571168583
 20
-402.8979886261917
 30
0.0
  0
VERTEX
  5
FA8
  8
DATA
  6
CONTINUOUS
 62
     7
 10
-2.38136571168583
 20
-402.8979886261917
 30
0.0
  0
VERTEX
  5
FA9
  8
DATA
  6
CONTINUOUS
 62
     7
 10
-2.38136571168583
 20
-404.8979886261917
 30
0.0
  0
VERTEX
  5
FAA
  8
DATA
  6
CONTINUOUS
 62
     7
 10
-4.38136571168583
 20
-404.8979886261917
 30
0.0
  0
SEQEND
  5
FAB
  8
DATA
  6
CONTINUOUS
 62
     7
  0
POLYLINE
  5
70E
  8
DATA
  6
CONTINUOUS
 62
     7
 66
     1
 10
0.0
 20
0.0
 30
0.0
 70
     1
  0
VERTEX
  5
FAC
  8
DATA
  6
CONTINUOUS
 62
     7
 10
5.4186342883141796
 20
-402.8979886261917
 30
0.0
  0
VERTEX
  5
FAD
  8
DATA
  6
CONTINUOUS
 62
     7
 10
7.4186342883141787
 20
-402.8979886261917
 30
0.0
  0
VERTEX
  5
FAE
  8
DATA
  6
CONTINUOUS
 62
     7
 10
7.4186342883141787
 20
-404.8979886261917
 30
0.0
  0
VERTEX
  5
FAF
  8
DATA
  6
CONTINUOUS
 62
     7
 10
5.4186342883141796
 20
-404.8979886261917
 30
0.0
  0
SEQEND
  5
FB0
  8
DATA
  6
CONTINUOUS
 62
     7
  0
TEXT
  5
714
  8
DATA
 62
     7
 10
-3.470382444592917
 20
-408.31999999999999
 30
0.0
 40
1.5390625
  1
OUTPUT dBu
 41
0.8
 11
-3.470382444592917
 21
-406.78093749999999
 31
0.0
 73
     3
  0
POLYLINE
  5
715
  8
DATA
  6
CONTINUOUS
 62
     7
 66
     1
 10
0.0
 20
0.0
 30
0.0
 70
     1
  0
VERTEX
  5
FB1
  8
DATA
  6
CONTINUOUS
 62
     7
 10
-89.041297573526904
 20
-416.49950301184998
 30
0.0
  0
VERTEX
  5
FB2
  8
DATA
  6
CONTINUOUS
 62
     7
 10
-87.041297573526904
 20
-416.49950301184998
 30
0.0
  0
VERTEX
  5
FB3
  8
DATA
  6
CONTINUOUS
 62
     7
 10
-87.041297573526904
 20
-418.49950301184998
 30
0.0
  0
VERTEX
  5
FB4
  8
DATA
  6
CONTINUOUS
 62
     7
 10
-89.041297573526904
 20
-418.49950301184998
 30
0.0
  0
SEQEND
  5
FB5
  8
DATA
  6
CONTINUOUS
 62
     7
  0
POLYLINE
  5
71B
  8
DATA
  6
CONTINUOUS
 62
     7
 66
     1
 10
0.0
 20
0.0
 30
0.0
 70
     1
  0
VERTEX
  5
FB6
  8
DATA
  6
CONTINUOUS
 62
     7
 10
-70.04129757352689
 20
-416.49950301184998
 30
0.0
  0
VERTEX
  5
FB7
  8
DATA
  6
CONTINUOUS
 62
     7
 10
-68.04129757352689
 20
-416.49950301184998
 30
0.0
  0
VERTEX
  5
FB8
  8
DATA
  6
CONTINUOUS
 62
     7
 10
-68.04129757352689
 20
-418.49950301184998
 30
0.0
  0
VERTEX
  5
FB9
  8
DATA
  6
CONTINUOUS
 62
     7
 10
-70.04129757352689
 20
-418.49950301184998
 30
0.0
  0
SEQEND
  5
FBA
  8
DATA
  6
CONTINUOUS
 62
     7
  0
TEXT
  5
721
  8
DATA
 62
     7
 10
-88.991962675056399
 20
-412.06297511670442
 30
0.0
 40
1.7314453125
  1
PC
 41
0.8
 11
-88.991962675056399
 21
-410.33152980420442
 31
0.0
 73
     3
  0
TEXT
  5
722
  8
DATA
 62
     7
 10
-71.063987558352139
 20
-412.51902903051149
 30
0.0
 40
1.7314453125
  1
CLIP
 41
0.8
 11
-71.063987558352139
 21
-410.7875837180116
 31
0.0
 73
     3
  0
ARC
  5
723
  8
DATA
  6
CONTINUOUS
 62
     7
 10
-220.0
 20
-429.99900602370019
 30
0.0
 40
4.0
 50
180.0
 51
270.0
  0
ARC
  5
724
  8
DATA
  6
CONTINUOUS
 62
     7
 10
-130.0
 20
-429.99900602370019
 30
0.0
 40
4.0
 50
270.0
 51
0.0
  0
TEXT
  5
725
  8
DATA
 62
     7
 10
-216.95052477368711
 20
-404.03059220164448
 30
0.0
 40
2.1162109375
  1
ADVANCED EFFDBACK SUPPRESSION / EQ / ALIGNMENT DELAY / DYNAMICS
 41
0.8
 11
-216.95052477368711
 21
-401.91438126414448
 31
0.0
 73
     3
  0
CIRCLE
  5
726
  8
DATA
  6
CONTINUOUS
 62
     7
 10
-297.49802880936289
 20
35.529321527446172
 30
0.0
 40
2.599999999999965
  0
CIRCLE
  5
727
  8
DATA
  6
CONTINUOUS
 62
     7
 10
-297.49802880936289
 20
35.529321527446172
 30
0.0
 40
1.649999999999977
  0
TEXT
  5
728
  8
DATA
 62
     7
 10
-293.98951337323058
 20
11.90556153962854
 30
0.0
 40
1.923828125
  1
 CHANNEL 1
 50
180.0
 41
0.8
 11
-293.98951337323058
 21
9.9817334146285432
 31
0.0
 73
     3
  0
LINE
  5
729
  8
DATA
  6
CONTINUOUS
 62
     7
 10
-294.78705366569483
 20
25.999907809437069
 30
0.0
 11
-299.13705366569479
 21
25.999907809437069
 31
0.0
  0
LINE
  5
72A
  8
DATA
  6
CONTINUOUS
 62
     7
 10
-295.73705366569482
 20
23.19990780943705
 30
0.0
 11
-299.13705366569479
 21
23.19990780943705
 31
0.0
  0
LINE
  5
72B
  8
DATA
  6
CONTINUOUS
 62
     7
 10
-299.13705366569479
 20
25.999907809437069
 30
0.0
 11
-300.08705366569478
 21
25.999907809437069
 31
0.0
  0
LINE
  5
72C
  8
DATA
  6
CONTINUOUS
 62
     7
 10
-295.73705366569482
 20
23.19990780943705
 30
0.0
 11
-295.38705366569479
 21
25.79990780943708
 31
0.0
  0
LINE
  5
72D
  8
DATA
  6
CONTINUOUS
 62
     7
 10
-299.13705366569479
 20
23.19990780943705
 30
0.0
 11
-299.48705366569482
 21
25.79990780943708
 31
0.0
  0
LINE
  5
72E
  8
DATA
  6
CONTINUOUS
 62
     7
 10
-300.08705366569478
 20
25.999907809437069
 30
0.0
 11
-300.08705366569478
 21
25.79990780943708
 31
0.0
  0
LINE
  5
72F
  8
DATA
  6
CONTINUOUS
 62
     7
 10
-294.78705366569483
 20
25.999907809437069
 30
0.0
 11
-294.78705366569483
 21
25.79990780943708
 31
0.0
  0
LINE
  5
730
  8
DATA
  6
CONTINUOUS
 62
     7
 10
-300.08705366569478
 20
25.79990780943708
 30
0.0
 11
-294.79705366569482
 21
25.79990780943708
 31
0.0
  0
LINE
  5
731
  8
DATA
  6
CONTINUOUS
 62
     7
 10
-294.78705366569483
 20
31.76316107767326
 30
0.0
 11
-299.13705366569479
 21
31.76316107767326
 31
0.0
  0
LINE
  5
732
  8
DATA
  6
CONTINUOUS
 62
     7
 10
-299.13705366569479
 20
31.76316107767326
 30
0.0
 11
-300.08705366569478
 21
31.76316107767326
 31
0.0
  0
LINE
  5
733
  8
DATA
  6
CONTINUOUS
 62
     7
 10
-295.58897674261789
 20
30.063161077673239
 30
0.0
 11
-295.38705366569479
 21
31.56316107767325
 31
0.0
  0
LINE
  5
734
  8
DATA
  6
CONTINUOUS
 62
     7
 10
-299.28513058877172
 20
30.063161077673239
 30
0.0
 11
-299.48705366569482
 21
31.56316107767325
 31
0.0
  0
LINE
  5
735
  8
DATA
  6
CONTINUOUS
 62
     7
 10
-300.08705366569478
 20
31.76316107767326
 30
0.0
 11
-300.08705366569478
 21
31.56316107767325
 31
0.0
  0
LINE
  5
736
  8
DATA
  6
CONTINUOUS
 62
     7
 10
-294.78705366569483
 20
31.76316107767326
 30
0.0
 11
-294.78705366569483
 21
31.56316107767325
 31
0.0
  0
LINE
  5
737
  8
DATA
  6
CONTINUOUS
 62
     7
 10
-300.08705366569478
 20
31.56316107767325
 30
0.0
 11
-294.79705366569482
 21
31.56316107767325
 31
0.0
  0
LINE
  5
738
  8
DATA
  6
CONTINUOUS
 62
     7
 10
-295.58897674261789
 20
30.063161077673239
 30
0.0
 11
-299.28513058877172
 21
30.063161077673239
 31
0.0
  0
TEXT
  5
739
  8
DATA
 62
     7
 10
-296.08332697593119
 20
29.349828655444981
 30
0.0
 40
1.6288411458333329
  1
MIC
 50
180.0
 41
0.8
 11
-296.08332697593119
 21
27.72098750961165
 31
0.0
 73
     3
  0
TEXT
  5
73A
  8
DATA
 62
     7
 10
-295.2711007899095
 20
22.23118843247957
 30
0.0
 40
1.6288411458333329
  1
LINE
 50
180.0
 41
0.8
 11
-295.2711007899095
 21
20.602347286646239
 31
0.0
 73
     3
  0
TEXT
  5
73B
  8
DATA
 62
     7
 10
-311.9048281925011
 20
16.364729765136829
 30
0.0
 40
2.0360514322916661
  1
PUSH
 50
180.0
 41
0.8
 11
-311.9048281925011
 21
14.328678332845159
 31
0.0
 73
     3
  0
ARC
  5
73C
  8
DATA
  6
CONTINUOUS
 62
     7
 10
-314.54959903833083
 20
28.031604105156958
 30
0.0
 40
10.899999999999819
 50
289.2358126075107
 51
250.76418739248879
  0
CIRCLE
  5
73D
  8
DATA
  6
CONTINUOUS
 62
     7
 10
-314.54959903833083
 20
28.031604105156958
 30
0.0
 40
9.8499999999999073
  0
CIRCLE
  5
73E
  8
DATA
  6
CONTINUOUS
 62
     7
 10
-314.54959903833083
 20
28.031604105156958
 30
0.0
 40
7.8499999999999091
  0
CIRCLE
  5
73F
  8
DATA
  6
CONTINUOUS
 62
     7
 10
-314.54959903833083
 20
31.95274212629942
 30
0.0
 40
1.2649999999999859
  0
CIRCLE
  5
740
  8
DATA
  6
CONTINUOUS
 62
     7
 10
-310.61811745244478
 20
28.031604105156958
 30
0.0
 40
1.2649999999999859
  0
CIRCLE
  5
741
  8
DATA
  6
CONTINUOUS
 62
     7
 10
-318.4840434577182
 20
28.031604105156958
 30
0.0
 40
1.2649999999999291
  0
ARC
  5
742
  8
DATA
  6
CONTINUOUS
 62
     7
 10
-316.37745659815249
 20
15.01327027857092
 30
0.0
 40
3.1721424401781761
 50
93.110794313929901
 51
266.88920568607011
  0
ARC
  5
743
  8
DATA
  6
CONTINUOUS
 62
     7
 10
-312.7217414785091
 20
15.01327027857092
 30
0.0
 40
3.1721424401781801
 50
273.11079431392989
 51
86.889205686070085
  0
LINE
  5
744
  8
DATA
  6
CONTINUOUS
 62
     7
 10
-312.54959903833088
 20
11.84580210334499
 30
0.0
 11
-316.54959903833083
 21
11.84580210334499
 31
0.0
  0
LINE
  5
745
  8
DATA
  6
CONTINUOUS
 62
     7
 10
-316.54959903833083
 20
18.180738453796842
 30
0.0
 11
-312.54959903837999
 21
18.180738453796842
 31
0.0
  0
CIRCLE
  5
746
  8
DATA
  6
CONTINUOUS
 62
     7
 10
-324.53664683728277
 20
37.771529113315651
 30
0.0
 40
2.7499999999999551
  0
POLYLINE
  5
747
  8
DATA
  6
CONTINUOUS
 62
     7
 66
     1
 10
0.0
 20
0.0
 30
0.0
  0
VERTEX
  5
FBB
  8
DATA
  6
CONTINUOUS
 62
     7
 10
-324.31450355302883
 20
37.074939650985911
 30
0.0
  0
VERTEX
  5
FBC
  8
DATA
  6
CONTINUOUS
 62
     7
 10
-324.31450355302883
 20
36.019939650985933
 30
0.0
  0
VERTEX
  5
FBD
  8
DATA
  6
CONTINUOUS
 62
     7
 10
-324.70450355302881
 20
36.019939650985933
 30
0.0
  0
VERTEX
  5
FBE
  8
DATA
  6
CONTINUOUS
 62
     7
 10
-324.70450355302881
 20
37.074939650985911
 30
0.0
  0
SEQEND
  5
FBF
  8
DATA
  6
CONTINUOUS
 62
     7
  0
POLYLINE
  5
74D
  8
DATA
  6
CONTINUOUS
 62
     7
 66
     1
 10
0.0
 20
0.0
 30
0.0
  0
VERTEX
  5
FC0
  8
DATA
  6
CONTINUOUS
 62
     7
 10
-324.31450355302883
 20
38.464939650985933
 30
0.0
  0
VERTEX
  5
FC1
  8
DATA
  6
CONTINUOUS
 62
     7
 10
-324.31450355302883
 20
39.51993965098594
 30
0.0
  0
VERTEX
  5
FC2
  8
DATA
  6
CONTINUOUS
 62
     7
 10
-324.70450355302881
 20
39.51993965098594
 30
0.0
  0
VERTEX
  5
FC3
  8
DATA
  6
CONTINUOUS
 62
     7
 10
-324.70450355302881
 20
38.464939650985933
 30
0.0
  0
SEQEND
  5
FC4
  8
DATA
  6
CONTINUOUS
 62
     7
  0
POLYLINE
  5
753
  8
DATA
  6
CONTINUOUS
 62
     7
 66
     1
 10
0.0
 20
0.0
 30
0.0
  0
VERTEX
  5
FC5
  8
DATA
  6
CONTINUOUS
 62
     7
 10
-323.81450355302883
 20
37.574939650985911
 30
0.0
  0
VERTEX
  5
FC6
  8
DATA
  6
CONTINUOUS
 62
     7
 10
-322.75950355302882
 20
37.574939650985911
 30
0.0
  0
VERTEX
  5
FC7
  8
DATA
  6
CONTINUOUS
 62
     7
 10
-322.75950355302882
 20
37.964939650985933
 30
0.0
  0
VERTEX
  5
FC8
  8
DATA
  6
CONTINUOUS
 62
     7
 10
-323.81450355302883
 20
37.964939650985933
 30
0.0
  0
SEQEND
  5
FC9
  8
DATA
  6
CONTINUOUS
 62
     7
  0
POLYLINE
  5
759
  8
DATA
  6
CONTINUOUS
 62
     7
 66
     1
 10
0.0
 20
0.0
 30
0.0
  0
VERTEX
  5
FCA
  8
DATA
  6
CONTINUOUS
 62
     7
 10
-325.20450355302881
 20
37.574939650985911
 30
0.0
  0
VERTEX
  5
FCB
  8
DATA
  6
CONTINUOUS
 62
     7
 10
-326.25950355302882
 20
37.574939650985911
 30
0.0
  0
VERTEX
  5
FCC
  8
DATA
  6
CONTINUOUS
 62
     7
 10
-326.25950355302882
 20
37.964939650985933
 30
0.0
  0
VERTEX
  5
FCD
  8
DATA
  6
CONTINUOUS
 62
     7
 10
-325.20450355302881
 20
37.964939650985933
 30
0.0
  0
SEQEND
  5
FCE
  8
DATA
  6
CONTINUOUS
 62
     7
  0
ARC
  5
75F
  8
DATA
  6
CONTINUOUS
 62
     7
 10
-325.20450355302881
 20
38.464939650985933
 30
0.0
 40
0.5
 50
270.0
 51
0.0
  0
ARC
  5
760
  8
DATA
  6
CONTINUOUS
 62
     7
 10
-325.20450355302881
 20
37.074939650985911
 30
0.0
 40
0.5
 50
0.0
 51
90.0
  0
ARC
  5
761
  8
DATA
  6
CONTINUOUS
 62
     7
 10
-323.81450355302883
 20
37.074939650985911
 30
0.0
 40
0.5
 50
90.0
 51
180.0
  0
ARC
  5
762
  8
DATA
  6
CONTINUOUS
 62
     7
 10
-323.81450355302883
 20
38.464939650985933
 30
0.0
 40
0.5
 50
180.0
 51
270.0
  0
CIRCLE
  5
763
  8
DATA
  6
CONTINUOUS
 62
     7
 10
-304.7357435669677
 20
17.96993965098612
 30
0.0
 40
2.7499999999999041
  0
POLYLINE
  5
764
  8
DATA
  6
CONTINUOUS
 62
     7
 66
     1
 10
0.0
 20
0.0
 30
0.0
  0
VERTEX
  5
FCF
  8
DATA
  6
CONTINUOUS
 62
     7
 10
-304.5136002827137
 20
17.27335018865638
 30
0.0
  0
VERTEX
  5
FD0
  8
DATA
  6
CONTINUOUS
 62
     7
 10
-304.5136002827137
 20
16.218350188656402
 30
0.0
  0
VERTEX
  5
FD1
  8
DATA
  6
CONTINUOUS
 62
     7
 10
-304.90360028271368
 20
16.218350188656402
 30
0.0
  0
VERTEX
  5
FD2
  8
DATA
  6
CONTINUOUS
 62
     7
 10
-304.90360028271368
 20
17.27335018865638
 30
0.0
  0
SEQEND
  5
FD3
  8
DATA
  6
CONTINUOUS
 62
     7
  0
POLYLINE
  5
76A
  8
DATA
  6
CONTINUOUS
 62
     7
 66
     1
 10
0.0
 20
0.0
 30
0.0
  0
VERTEX
  5
FD4
  8
DATA
  6
CONTINUOUS
 62
     7
 10
-304.5136002827137
 20
18.663350188656391
 30
0.0
  0
VERTEX
  5
FD5
  8
DATA
  6
CONTINUOUS
 62
     7
 10
-304.5136002827137
 20
19.71835018865638
 30
0.0
  0
VERTEX
  5
FD6
  8
DATA
  6
CONTINUOUS
 62
     7
 10
-304.90360028271368
 20
19.71835018865638
 30
0.0
  0
VERTEX
  5
FD7
  8
DATA
  6
CONTINUOUS
 62
     7
 10
-304.90360028271368
 20
18.663350188656391
 30
0.0
  0
SEQEND
  5
FD8
  8
DATA
  6
CONTINUOUS
 62
     7
  0
POLYLINE
  5
770
  8
DATA
  6
CONTINUOUS
 62
     7
 66
     1
 10
0.0
 20
0.0
 30
0.0
  0
VERTEX
  5
FD9
  8
DATA
  6
CONTINUOUS
 62
     7
 10
-304.0136002827137
 20
17.77335018865638
 30
0.0
  0
VERTEX
  5
FDA
  8
DATA
  6
CONTINUOUS
 62
     7
 10
-302.9586002827138
 20
17.77335018865638
 30
0.0
  0
VERTEX
  5
FDB
  8
DATA
  6
CONTINUOUS
 62
     7
 10
-302.9586002827138
 20
18.163350188656391
 30
0.0
  0
VERTEX
  5
FDC
  8
DATA
  6
CONTINUOUS
 62
     7
 10
-304.0136002827137
 20
18.163350188656391
 30
0.0
  0
SEQEND
  5
FDD
  8
DATA
  6
CONTINUOUS
 62
     7
  0
POLYLINE
  5
776
  8
DATA
  6
CONTINUOUS
 62
     7
 66
     1
 10
0.0
 20
0.0
 30
0.0
  0
VERTEX
  5
FDE
  8
DATA
  6
CONTINUOUS
 62
     7
 10
-305.40360028271368
 20
17.77335018865638
 30
0.0
  0
VERTEX
  5
FDF
  8
DATA
  6
CONTINUOUS
 62
     7
 10
-306.45860028271369
 20
17.77335018865638
 30
0.0
  0
VERTEX
  5
FE0
  8
DATA
  6
CONTINUOUS
 62
     7
 10
-306.45860028271369
 20
18.163350188656391
 30
0.0
  0
VERTEX
  5
FE1
  8
DATA
  6
CONTINUOUS
 62
     7
 10
-305.40360028271368
 20
18.163350188656391
 30
0.0
  0
SEQEND
  5
FE2
  8
DATA
  6
CONTINUOUS
 62
     7
  0
ARC
  5
77C
  8
DATA
  6
CONTINUOUS
 62
     7
 10
-305.40360028271368
 20
18.663350188656391
 30
0.0
 40
0.5
 50
270.0
 51
0.0
  0
ARC
  5
77D
  8
DATA
  6
CONTINUOUS
 62
     7
 10
-305.40360028271368
 20
17.27335018865638
 30
0.0
 40
0.5
 50
0.0
 51
90.0
  0
ARC
  5
77E
  8
DATA
  6
CONTINUOUS
 62
     7
 10
-304.0136002827137
 20
17.27335018865638
 30
0.0
 40
0.5
 50
90.0
 51
180.0
  0
ARC
  5
77F
  8
DATA
  6
CONTINUOUS
 62
     7
 10
-304.0136002827137
 20
18.663350188656391
 30
0.0
 40
0.5000000000000094
 50
206.44014914343799
 51
270.0
  0
LINE
  5
780
  8
DATA
  6
CONTINUOUS
 62
     7
 10
-178.5011803818345
 20
10.442347888991559
 30
0.0
 11
-178.5011803818345
 21
41.442347888991563
 31
0.0
  0
POLYLINE
  5
781
  8
DATA
  6
CONTINUOUS
 62
     7
 66
     1
 10
0.0
 20
0.0
 30
0.0
 70
   129
  0
VERTEX
  5
FE3
  8
DATA
  6
CONTINUOUS
 62
     7
 10
-270.69039625672173
 20
41.80248357605111
 30
0.0
  0
VERTEX
  5
FE4
  8
DATA
  6
CONTINUOUS
 62
     7
 10
-238.69040600335759
 20
41.80248357605111
 30
0.0
  0
VERTEX
  5
FE5
  8
DATA
  6
CONTINUOUS
 62
     7
 10
-238.69040600335759
 20
33.0524332593465
 30
0.0
  0
VERTEX
  5
FE6
  8
DATA
  6
CONTINUOUS
 62
     7
 10
-242.81535706333489
 20
33.0524332593465
 30
0.0
  0
VERTEX
  5
FE7
  8
DATA
  6
CONTINUOUS
 62
     7
 10
-242.81535706333489
 20
30.552370442641831
 30
0.0
  0
VERTEX
  5
FE8
  8
DATA
  6
CONTINUOUS
 62
     7
 10
-245.3154198800394
 20
30.552370442641831
 30
0.0
  0
VERTEX
  5
FE9
  8
DATA
  6
CONTINUOUS
 62
     7
 10
-245.3154198800394
 20
33.0524332593465
 30
0.0
  0
VERTEX
  5
FEA
  8
DATA
  6
CONTINUOUS
 62
     7
 10
-264.06538238003958
 20
33.0524332593465
 30
0.0
  0
VERTEX
  5
FEB
  8
DATA
  6
CONTINUOUS
 62
     7
 10
-264.06538238003958
 20
30.552370442641831
 30
0.0
  0
VERTEX
  5
FEC
  8
DATA
  6
CONTINUOUS
 62
     7
 10
-266.56544519674429
 20
30.552370442641831
 30
0.0
  0
VERTEX
  5
FED
  8
DATA
  6
CONTINUOUS
 62
     7
 10
-266.56544519674429
 20
33.0524332593465
 30
0.0
  0
VERTEX
  5
FEE
  8
DATA
  6
CONTINUOUS
 62
     7
 10
-270.69039625672173
 20
33.0524332593465
 30
0.0
  0
VERTEX
  5
FEF
  8
DATA
  6
CONTINUOUS
 62
     7
 10
-270.69039625672173
 20
41.80248357605111
 30
0.0
  0
SEQEND
  5
FF0
  8
DATA
  6
CONTINUOUS
 62
     7
  0
POLYLINE
  5
790
  8
DATA
  6
CONTINUOUS
 62
     7
 66
     1
 10
0.0
 20
0.0
 30
0.0
 70
   129
  0
VERTEX
  5
FF1
  8
DATA
  6
CONTINUOUS
 62
     7
 10
-239.6900242298116
 20
33.247067201675279
 30
0.0
  0
VERTEX
  5
FF2
  8
DATA
  6
CONTINUOUS
 62
     7
 10
-269.69077803026761
 20
33.247067201675279
 30
0.0
  0
VERTEX
  5
FF3
  8
DATA
  6
CONTINUOUS
 62
     7
 10
-269.69077803026761
 20
41.607849633722672
 30
0.0
  0
VERTEX
  5
FF4
  8
DATA
  6
CONTINUOUS
 62
     7
 10
-239.6900242298116
 20
41.607849633722672
 30
0.0
  0
VERTEX
  5
FF5
  8
DATA
  6
CONTINUOUS
 62
     7
 10
-239.6900242298116
 20
33.247067201675279
 30
0.0
  0
SEQEND
  5
FF6
  8
DATA
  6
CONTINUOUS
 62
     7
  0
POLYLINE
  5
797
  8
DATA
  6
CONTINUOUS
 62
     7
 66
     1
 10
0.0
 20
0.0
 30
0.0
 70
   129
  0
VERTEX
  5
FF7
  8
DATA
  6
CONTINUOUS
 62
     7
 10
-241.18538256721399
 20
34.117833689305392
 30
0.0
  0
VERTEX
  5
FF8
  8
DATA
  6
CONTINUOUS
 62
     7
 10
-241.18538256721399
 20
34.954352741090368
 30
0.0
  0
VERTEX
  5
FF9
  8
DATA
  6
CONTINUOUS
 62
     7
 10
-239.66967921841839
 20
34.954352741090368
 30
0.0
  0
VERTEX
  5
FFA
  8
DATA
  6
CONTINUOUS
 62
     7
 10
-239.66967921841839
 20
33.920826162314441
 30
0.0
  0
VERTEX
  5
FFB
  8
DATA
  6
CONTINUOUS
 62
     7
 10
-269.66975485182792
 20
33.920826162314441
 30
0.0
  0
VERTEX
  5
FFC
  8
DATA
  6
CONTINUOUS
 62
     7
 10
-269.66975485182792
 20
34.954352741090368
 30
0.0
  0
VERTEX
  5
FFD
  8
DATA
  6
CONTINUOUS
 62
     7
 10
-268.15371241950908
 20
34.954352741090368
 30
0.0
  0
VERTEX
  5
FFE
  8
DATA
  6
CONTINUOUS
 62
     7
 10
-268.15371241950908
 20
34.117833689305392
 30
0.0
  0
VERTEX
  5
FFF
  8
DATA
  6
CONTINUOUS
 62
     7
 10
-266.18533256721418
 20
34.117833689305392
 30
0.0
  0
VERTEX
  5
1000
  8
DATA
  6
CONTINUOUS
 62
     7
 10
-266.18533256721418
 20
34.954352741090368
 30
0.0
  0
VERTEX
  5
1001
  8
DATA
  6
CONTINUOUS
 62
     7
 10
-263.15392586962281
 20
34.954352741090368
 30
0.0
  0
VERTEX
  5
1002
  8
DATA
  6
CONTINUOUS
 62
     7
 10
-263.15392586962281
 20
34.117833689305392
 30
0.0
  0
VERTEX
  5
1003
  8
DATA
  6
CONTINUOUS
 62
     7
 10
-261.18520693380452
 20
34.117833689305392
 30
0.0
  0
VERTEX
  5
1004
  8
DATA
  6
CONTINUOUS
 62
     7
 10
-261.18520693380452
 20
34.954352741090368
 30
0.0
  0
VERTEX
  5
1005
  8
DATA
  6
CONTINUOUS
 62
     7
 10
-258.15380023621339
 20
34.954352741090368
 30
0.0
  0
VERTEX
  5
1006
  8
DATA
  6
CONTINUOUS
 62
     7
 10
-258.15380023621339
 20
34.117833689305392
 30
0.0
  0
VERTEX
  5
1007
  8
DATA
  6
CONTINUOUS
 62
     7
 10
-256.1854203839186
 20
34.117833689305392
 30
0.0
  0
VERTEX
  5
1008
  8
DATA
  6
CONTINUOUS
 62
     7
 10
-256.1854203839186
 20
34.954352741090368
 30
0.0
  0
VERTEX
  5
1009
  8
DATA
  6
CONTINUOUS
 62
     7
 10
-253.1540136863274
 20
34.954352741090368
 30
0.0
  0
VERTEX
  5
100A
  8
DATA
  6
CONTINUOUS
 62
     7
 10
-253.1540136863274
 20
34.117833689305392
 30
0.0
  0
VERTEX
  5
100B
  8
DATA
  6
CONTINUOUS
 62
     7
 10
-251.1852947505094
 20
34.117833689305392
 30
0.0
  0
VERTEX
  5
100C
  8
DATA
  6
CONTINUOUS
 62
     7
 10
-251.1852947505094
 20
34.954352741090368
 30
0.0
  0
VERTEX
  5
100D
  8
DATA
  6
CONTINUOUS
 62
     7
 10
-248.15388805291821
 20
34.954352741090368
 30
0.0
  0
VERTEX
  5
100E
  8
DATA
  6
CONTINUOUS
 62
     7
 10
-248.15388805291821
 20
34.117833689305392
 30
0.0
  0
VERTEX
  5
100F
  8
DATA
  6
CONTINUOUS
 62
     7
 10
-246.1855082006231
 20
34.117833689305392
 30
0.0
  0
VERTEX
  5
1010
  8
DATA
  6
CONTINUOUS
 62
     7
 10
-246.1855082006231
 20
34.954352741090368
 30
0.0
  0
VERTEX
  5
1011
  8
DATA
  6
CONTINUOUS
 62
     7
 10
-243.15376241950869
 20
34.954352741090368
 30
0.0
  0
VERTEX
  5
1012
  8
DATA
  6
CONTINUOUS
 62
     7
 10
-243.15376241950869
 20
34.117833689305392
 30
0.0
  0
VERTEX
  5
1013
  8
DATA
  6
CONTINUOUS
 62
     7
 10
-241.18538256721399
 20
34.117833689305392
 30
0.0
  0
SEQEND
  5
1014
  8
DATA
  6
CONTINUOUS
 62
     7
  0
LINE
  5
7B6
  8
DATA
  6
CONTINUOUS
 62
     7
 10
-239.66967921841839
 20
33.920826162314441
 30
0.0
 11
-269.66975485182792
 21
33.920826162314441
 31
0.0
  0
POLYLINE
  5
7B7
  8
DATA
  6
CONTINUOUS
 62
     7
 66
     1
 10
0.0
 20
0.0
 30
0.0
 70
   129
  0
VERTEX
  5
1015
  8
DATA
  6
CONTINUOUS
 62
     7
 10
-267.66170222731608
 20
37.612089396092571
 30
0.0
  0
VERTEX
  5
1016
  8
DATA
  6
CONTINUOUS
 62
     7
 10
-266.67734275940711
 20
37.612089396092571
 30
0.0
  0
VERTEX
  5
1017
  8
DATA
  6
CONTINUOUS
 62
     7
 10
-266.67734275940711
 20
36.62772992818357
 30
0.0
  0
VERTEX
  5
1018
  8
DATA
  6
CONTINUOUS
 62
     7
 10
-267.66170222731608
 20
36.62772992818357
 30
0.0
  0
VERTEX
  5
1019
  8
DATA
  6
CONTINUOUS
 62
     7
 10
-267.66170222731608
 20
37.612089396092571
 30
0.0
  0
SEQEND
  5
101A
  8
DATA
  6
CONTINUOUS
 62
     7
  0
POLYLINE
  5
7BE
  8
DATA
  6
CONTINUOUS
 62
     7
 66
     1
 10
0.0
 20
0.0
 30
0.0
 70
   129
  0
VERTEX
  5
101B
  8
DATA
  6
CONTINUOUS
 62
     7
 10
-262.66157659390689
 20
37.612089396092571
 30
0.0
  0
VERTEX
  5
101C
  8
DATA
  6
CONTINUOUS
 62
     7
 10
-261.67755620952067
 20
37.612089396092571
 30
0.0
  0
VERTEX
  5
101D
  8
DATA
  6
CONTINUOUS
 62
     7
 10
-261.67755620952067
 20
36.62772992818357
 30
0.0
  0
VERTEX
  5
101E
  8
DATA
  6
CONTINUOUS
 62
     7
 10
-262.66157659390689
 20
36.62772992818357
 30
0.0
  0
VERTEX
  5
101F
  8
DATA
  6
CONTINUOUS
 62
     7
 10
-262.66157659390689
 20
37.612089396092571
 30
0.0
  0
SEQEND
  5
1020
  8
DATA
  6
CONTINUOUS
 62
     7
  0
POLYLINE
  5
7C5
  8
DATA
  6
CONTINUOUS
 62
     7
 66
     1
 10
0.0
 20
0.0
 30
0.0
 70
   129
  0
VERTEX
  5
1021
  8
DATA
  6
CONTINUOUS
 62
     7
 10
-257.66179004402039
 20
37.612089396092571
 30
0.0
  0
VERTEX
  5
1022
  8
DATA
  6
CONTINUOUS
 62
     7
 10
-256.67743057611148
 20
37.612089396092571
 30
0.0
  0
VERTEX
  5
1023
  8
DATA
  6
CONTINUOUS
 62
     7
 10
-256.67743057611148
 20
36.62772992818357
 30
0.0
  0
VERTEX
  5
1024
  8
DATA
  6
CONTINUOUS
 62
     7
 10
-257.66179004402039
 20
36.62772992818357
 30
0.0
  0
VERTEX
  5
1025
  8
DATA
  6
CONTINUOUS
 62
     7
 10
-257.66179004402039
 20
37.612089396092571
 30
0.0
  0
SEQEND
  5
1026
  8
DATA
  6
CONTINUOUS
 62
     7
  0
POLYLINE
  5
7CC
  8
DATA
  6
CONTINUOUS
 62
     7
 66
     1
 10
0.0
 20
0.0
 30
0.0
 70
   129
  0
VERTEX
  5
1027
  8
DATA
  6
CONTINUOUS
 62
     7
 10
-252.66166441061131
 20
37.612089396092571
 30
0.0
  0
VERTEX
  5
1028
  8
DATA
  6
CONTINUOUS
 62
     7
 10
-251.67764402622561
 20
37.612089396092571
 30
0.0
  0
VERTEX
  5
1029
  8
DATA
  6
CONTINUOUS
 62
     7
 10
-251.67764402622561
 20
36.62772992818357
 30
0.0
  0
VERTEX
  5
102A
  8
DATA
  6
CONTINUOUS
 62
     7
 10
-252.66166441061131
 20
36.62772992818357
 30
0.0
  0
VERTEX
  5
102B
  8
DATA
  6
CONTINUOUS
 62
     7
 10
-252.66166441061131
 20
37.612089396092571
 30
0.0
  0
SEQEND
  5
102C
  8
DATA
  6
CONTINUOUS
 62
     7
  0
POLYLINE
  5
7D3
  8
DATA
  6
CONTINUOUS
 62
     7
 66
     1
 10
0.0
 20
0.0
 30
0.0
 70
   129
  0
VERTEX
  5
102D
  8
DATA
  6
CONTINUOUS
 62
     7
 10
-247.6618778607253
 20
37.612089396092571
 30
0.0
  0
VERTEX
  5
102E
  8
DATA
  6
CONTINUOUS
 62
     7
 10
-246.67751839281601
 20
37.612089396092571
 30
0.0
  0
VERTEX
  5
102F
  8
DATA
  6
CONTINUOUS
 62
     7
 10
-246.67751839281601
 20
36.62772992818357
 30
0.0
  0
VERTEX
  5
1030
  8
DATA
  6
CONTINUOUS
 62
     7
 10
-247.6618778607253
 20
36.62772992818357
 30
0.0
  0
VERTEX
  5
1031
  8
DATA
  6
CONTINUOUS
 62
     7
 10
-247.6618778607253
 20
37.612089396092571
 30
0.0
  0
SEQEND
  5
1032
  8
DATA
  6
CONTINUOUS
 62
     7
  0
POLYLINE
  5
7DA
  8
DATA
  6
CONTINUOUS
 62
     7
 66
     1
 10
0.0
 20
0.0
 30
0.0
 70
   129
  0
VERTEX
  5
1033
  8
DATA
  6
CONTINUOUS
 62
     7
 10
-242.66175222731579
 20
37.612089396092571
 30
0.0
  0
VERTEX
  5
1034
  8
DATA
  6
CONTINUOUS
 62
     7
 10
-241.67756230116839
 20
37.612089396092571
 30
0.0
  0
VERTEX
  5
1035
  8
DATA
  6
CONTINUOUS
 62
     7
 10
-241.67756230116839
 20
36.62772992818357
 30
0.0
  0
VERTEX
  5
1036
  8
DATA
  6
CONTINUOUS
 62
     7
 10
-242.66175222731579
 20
36.62772992818357
 30
0.0
  0
VERTEX
  5
1037
  8
DATA
  6
CONTINUOUS
 62
     7
 10
-242.66175222731579
 20
37.612089396092571
 30
0.0
  0
SEQEND
  5
1038
  8
DATA
  6
CONTINUOUS
 62
     7
  0
LINE
  5
7E1
  8
DATA
  6
CONTINUOUS
 62
     7
 10
-257.25048173035418
 20
28.086215978259361
 30
0.0
 11
-257.25048173035418
 21
27.48230822340361
 31
0.0
  0
POLYLINE
  5
7E2
  8
DATA
  6
CONTINUOUS
 62
     7
 66
     1
 10
0.0
 20
0.0
 30
0.0
 70
   128
  0
VERTEX
  5
1039
  8
DATA
  6
CONTINUOUS
 62
     7
 10
-255.93246407559599
 20
28.991908068781019
 30
0.0
  0
VERTEX
  5
103A
  8
DATA
  6
CONTINUOUS
 62
     7
 10
-256.49602089118838
 20
28.086215978259361
 30
0.0
  0
VERTEX
  5
103B
  8
DATA
  6
CONTINUOUS
 62
     7
 10
-258.00460348599648
 20
28.086215978259361
 30
0.0
  0
VERTEX
  5
103C
  8
DATA
  6
CONTINUOUS
 62
     7
 10
-257.44070758688088
 20
28.991908068781019
 30
0.0
  0
SEQEND
  5
103D
  8
DATA
  6
CONTINUOUS
 62
     7
  0
LINE
  5
7E8
  8
DATA
  6
CONTINUOUS
 62
     7
 10
-257.25048173035418
 20
28.086215978259361
 30
0.0
 11
-256.68692491476151
 21
28.991908068781019
 31
0.0
  0
LINE
  5
7E9
  8
DATA
  6
CONTINUOUS
 62
     7
 10
-242.2504439136496
 20
28.086215978259361
 30
0.0
 11
-242.2504439136496
 21
27.48230822340361
 31
0.0
  0
POLYLINE
  5
7EA
  8
DATA
  6
CONTINUOUS
 62
     7
 66
     1
 10
0.0
 20
0.0
 30
0.0
 70
   128
  0
VERTEX
  5
103E
  8
DATA
  6
CONTINUOUS
 62
     7
 10
-240.93242625889141
 20
28.991908068781019
 30
0.0
  0
VERTEX
  5
103F
  8
DATA
  6
CONTINUOUS
 62
     7
 10
-241.4959830744838
 20
28.086215978259361
 30
0.0
  0
VERTEX
  5
1040
  8
DATA
  6
CONTINUOUS
 62
     7
 10
-243.00490475281501
 20
28.086215978259361
 30
0.0
  0
VERTEX
  5
1041
  8
DATA
  6
CONTINUOUS
 62
     7
 10
-242.44066977017621
 20
28.991908068781019
 30
0.0
  0
SEQEND
  5
1042
  8
DATA
  6
CONTINUOUS
 62
     7
  0
LINE
  5
7F0
  8
DATA
  6
CONTINUOUS
 62
     7
 10
-242.2504439136496
 20
28.086215978259361
 30
0.0
 11
-241.68671755629529
 21
28.991908068781019
 31
0.0
  0
LINE
  5
7F1
  8
DATA
  6
CONTINUOUS
 62
     7
 10
-251.4385901423548
 20
28.212694132420442
 30
0.0
 11
-252.84680401428969
 21
28.212694132420442
 31
0.0
  0
LINE
  5
7F2
  8
DATA
  6
CONTINUOUS
 62
     7
 10
-266.4382888755365
 20
28.212694132420442
 30
0.0
 11
-267.84684183099449
 21
28.212694132420442
 31
0.0
  0
LINE
  5
7F3
  8
DATA
  6
CONTINUOUS
 62
     7
 10
-246.48830978685899
 20
28.212694132420442
 30
0.0
 11
-247.89686274231721
 21
28.212694132420442
 31
0.0
  0
LINE
  5
7F4
  8
DATA
  6
CONTINUOUS
 62
     7
 10
-247.1925862645879
 20
28.916631526626141
 30
0.0
 11
-247.1925862645879
 21
27.50841765469152
 31
0.0
  0
LINE
  5
7F5
  8
DATA
  6
CONTINUOUS
 62
     7
 10
-261.48834760356362
 20
28.212694132420442
 30
0.0
 11
-262.89656147549857
 21
28.212694132420442
 31
0.0
  0
LINE
  5
7F6
  8
DATA
  6
CONTINUOUS
 62
     7
 10
-262.19228499776938
 20
28.916631526626141
 30
0.0
 11
-262.19228499776938
 21
27.50841765469152
 31
0.0
  0
POLYLINE
  5
7F7
  8
DATA
  6
CONTINUOUS
 62
     7
 66
     1
 10
0.0
 20
0.0
 30
0.0
 70
   128
  0
VERTEX
  5
1043
  8
DATA
  6
CONTINUOUS
 62
     7
 10
-239.13494450229959
 20
29.330652508478479
 30
0.0
  0
VERTEX
  5
1044
  8
DATA
  6
CONTINUOUS
 62
     7
 10
-239.13494450229959
 20
26.020180071276648
 30
0.0
  0
VERTEX
  5
1045
  8
DATA
  6
CONTINUOUS
 62
     7
 10
-253.90372735616779
 20
26.020180071276648
 30
0.0
  0
VERTEX
  5
1046
  8
DATA
  6
CONTINUOUS
 62
     7
 10
-253.90372735616779
 20
29.330652508478479
 30
0.0
  0
SEQEND
  5
1047
  8
DATA
  6
CONTINUOUS
 62
     7
  0
POLYLINE
  5
7FD
  8
DATA
  6
CONTINUOUS
 62
     7
 66
     1
 10
0.0
 20
0.0
 30
0.0
 70
   128
  0
VERTEX
  5
1048
  8
DATA
  6
CONTINUOUS
 62
     7
 10
-255.40349377937201
 20
29.330652508478479
 30
0.0
  0
VERTEX
  5
1049
  8
DATA
  6
CONTINUOUS
 62
     7
 10
-255.40349377937201
 20
26.020180071276648
 30
0.0
  0
VERTEX
  5
104A
  8
DATA
  6
CONTINUOUS
 62
     7
 10
-270.17227663324047
 20
26.020180071276648
 30
0.0
  0
VERTEX
  5
104B
  8
DATA
  6
CONTINUOUS
 62
     7
 10
-270.17227663324047
 20
29.330652508478479
 30
0.0
  0
SEQEND
  5
104C
  8
DATA
  6
CONTINUOUS
 62
     7
  0
ARC
  5
803
  8
DATA
  6
CONTINUOUS
 62
     7
 10
-242.17991454081951
 20
37.146915721487453
 30
0.0
 40
3.713184139998519
 50
47.890166272820792
 51
132.1098337271799
  0
ARC
  5
804
  8
DATA
  6
CONTINUOUS
 62
     7
 10
-247.1696981267707
 20
37.120824114800413
 30
0.0
 40
3.7392615793403081
 50
48.044543551972197
 51
131.9554564480278
  0
ARC
  5
805
  8
DATA
  6
CONTINUOUS
 62
     7
 10
-252.1696542184184
 20
37.120381914739752
 30
0.0
 40
3.7397037794009642
 50
48.047141244816721
 51
131.9528587551836
  0
ARC
  5
806
  8
DATA
  6
CONTINUOUS
 62
     7
 10
-257.16961031006599
 20
37.120824114800932
 30
0.0
 40
3.7392615793398121
 50
48.044543551968907
 51
131.95545644803079
  0
ARC
  5
807
  8
DATA
  6
CONTINUOUS
 62
     7
 10
-262.16956640171378
 20
37.120381914739241
 30
0.0
 40
3.7397037794015162
 50
48.047141244819059
 51
131.9528587551803
  0
ARC
  5
808
  8
DATA
  6
CONTINUOUS
 62
     7
 10
-267.18020362434311
 20
37.092906942792709
 30
0.0
 40
3.7671787513480588
 50
48.207600377215009
 51
131.79239962278371
  0
ARC
  5
809
  8
DATA
  6
CONTINUOUS
 62
     7
 10
-242.1799145408196
 20
37.088572685191977
 30
0.0
 40
4.5192769485306892
 50
56.567869501552039
 51
123.43213049844741
  0
ARC
  5
80A
  8
DATA
  6
CONTINUOUS
 62
     7
 10
-247.1696981267707
 20
37.055198098231692
 30
0.0
 40
4.5526515354909796
 50
56.694222263636753
 51
123.3057777363632
  0
ARC
  5
80B
  8
DATA
  6
CONTINUOUS
 62
     7
 10
-252.16132782046441
 20
37.082469628939343
 30
0.0
 40
4.5253876647858116
 50
56.590935537306692
 51
123.40906446269361
  0
ARC
  5
80C
  8
DATA
  6
CONTINUOUS
 62
     7
 10
-257.16128391211203
 20
37.027361631203391
 30
0.0
 40
4.5804955703641994
 50
56.798374252586967
 51
123.20162574741271
  0
ARC
  5
80D
  8
DATA
  6
CONTINUOUS
 62
     7
 10
-262.16956640171378
 20
37.054631274051687
 30
0.0
 40
4.5532183596710061
 50
56.696355838467163
 51
123.3036441615322
  0
ARC
  5
80E
  8
DATA
  6
CONTINUOUS
 62
     7
 10
-267.18020362434311
 20
37.01941310062476
 30
0.0
 40
4.5884365330979531
 50
56.828120668238881
 51
123.1718793317599
  0
LINE
  5
80F
  8
DATA
  6
CONTINUOUS
 62
     7
 10
-327.5011803818345
 20
8.4423478889915629
 30
0.0
 11
-180.5011803818345
 21
8.4423478889915629
 31
0.0
  0
LINE
  5
810
  8
DATA
  6
CONTINUOUS
 62
     7
 10
-327.5011803818345
 20
43.442347888991563
 30
0.0
 11
-180.5011803818345
 21
43.442347888991563
 31
0.0
  0
TEXT
  5
811
  8
DATA
 62
     7
 10
-188.46160479588369
 20
12.474052903688801
 30
0.0
 40
1.923828125
  1
 CHANNEL 2
 50
180.0
 41
0.8
 11
-188.46160479588369
 21
10.550224778688801
 31
0.0
 73
     3
  0
CIRCLE
  5
812
  8
DATA
  6
CONTINUOUS
 62
     7
 10
-276.45380019078277
 20
38.305136928337511
 30
0.0
 40
1.449999999999988
  0
ARC
  5
813
  8
DATA
  6
CONTINUOUS
 62
     7
 10
-286.35764982813788
 20
29.987828655444979
 30
0.0
 40
2.4500000000000042
 50
260.58380259651068
 51
59.416197403489001
  0
ARC
  5
814
  8
DATA
  6
CONTINUOUS
 62
     7
 10
-286.35764982813788
 20
29.987828655444979
 30
0.0
 40
2.4500000000000002
 50
80.58380259651473
 51
239.41619740348571
  0
TEXT
  5
815
  8
DATA
 62
     7
 10
-284.48037032073762
 20
35.698349676937411
 30
0.0
 40
1.6288411458333329
  1
MIC
 50
180.0
 41
0.8
 11
-284.48037032073762
 21
34.069508531104077
 31
0.0
 73
     3
  0
TEXT
  5
816
  8
DATA
 62
     7
 10
-284.48037032073762
 20
37.815016343604071
 30
0.0
 40
1.6288411458333329
  1
GAIN
 50
180.0
 41
0.8
 11
-284.48037032073762
 21
36.186175197770737
 31
0.0
 73
     3
  0
LINE
  5
817
  8
DATA
  6
CONTINUOUS
 62
     7
 10
-286.7584817295263
 20
27.570840077309541
 30
0.0
 11
-285.11109456804212
 21
32.096999104587283
 31
0.0
  0
LINE
  5
818
  8
DATA
  6
CONTINUOUS
 62
     7
 10
-287.6042050882329
 20
27.878658206305019
 30
0.0
 11
-285.9568179267502
 21
32.404817233578051
 31
0.0
  0
CIRCLE
  5
819
  8
DATA
  6
CONTINUOUS
 62
     7
 10
-286.3461009160726
 20
29.987828655444979
 30
0.0
 40
2.6669270706188941
  0
ARC
  5
81A
  8
DATA
  6
CONTINUOUS
 62
     7
 10
-286.3461009160726
 20
29.987828655444979
 30
0.0
 40
4.0000000000000169
 50
206.565051177078
 51
323.13010235415589
  0
LINE
  5
81B
  8
DATA
  6
CONTINUOUS
 62
     7
 10
-289.92380968007222
 20
28.198974273445149
 30
0.0
 11
-289.92380968007222
 21
27.60782865544499
 31
0.0
  0
LINE
  5
81C
  8
DATA
  6
CONTINUOUS
 62
     7
 10
-289.92380968007222
 20
28.198974273445149
 30
0.0
 11
-289.4061009160726
 21
27.867828655444988
 31
0.0
  0
TEXT
  5
81D
  8
DATA
 62
     7
 10
-273.75703595417309
 20
25.695205641087661
 30
0.0
 40
1.3466796875
  1
SIGNAL
 50
180.0
 41
0.8
 11
-273.75703595417309
 21
24.348525953587661
 31
0.0
 73
     3
  0
TEXT
  5
81E
  8
DATA
 62
     7
 10
-273.75703595417309
 20
27.445205641087661
 30
0.0
 40
1.3466796875
  1
(Green)
 50
180.0
 41
0.8
 11
-273.75703595417309
 21
26.098525953587661
 31
0.0
 73
     3
  0
TEXT
  5
81F
  8
DATA
 62
     7
 10
-274.40236076367052
 20
31.89282865544499
 30
0.0
 40
1.3466796875
  1
CLIP
 50
180.0
 41
0.8
 11
-274.40236076367052
 21
30.54614896794499
 31
0.0
 73
     3
  0
TEXT
  5
820
  8
DATA
 62
     7
 10
-274.40236076367052
 20
33.642828655444987
 30
0.0
 40
1.3466796875
  1
(Red)
 50
180.0
 41
0.8
 11
-274.40236076367052
 21
32.296148967944987
 31
0.0
 73
     3
  0
LINE
  5
821
  8
DATA
  6
CONTINUOUS
 62
     7
 10
-276.45380019078277
 20
36.187828655444982
 30
0.0
 11
-276.45380019078277
 21
34.587828655444987
 31
0.0
  0
LINE
  5
822
  8
DATA
  6
CONTINUOUS
 62
     7
 10
-276.45380019078277
 20
29.371482791891239
 30
0.0
 11
-276.45380019078277
 21
27.987828655444989
 31
0.0
  0
CIRCLE
  5
823
  8
DATA
  6
CONTINUOUS
 62
     7
 10
-203.49802880936281
 20
35.529321527446172
 30
0.0
 40
2.599999999999965
  0
CIRCLE
  5
824
  8
DATA
  6
CONTINUOUS
 62
     7
 10
-203.49802880936281
 20
35.529321527446172
 30
0.0
 40
1.649999999999977
  0
LINE
  5
825
  8
DATA
  6
CONTINUOUS
 62
     7
 10
-200.78705366569491
 20
25.999907809437069
 30
0.0
 11
-205.13705366569479
 21
25.999907809437069
 31
0.0
  0
LINE
  5
826
  8
DATA
  6
CONTINUOUS
 62
     7
 10
-201.73705366569479
 20
23.19990780943705
 30
0.0
 11
-205.13705366569479
 21
23.19990780943705
 31
0.0
  0
LINE
  5
827
  8
DATA
  6
CONTINUOUS
 62
     7
 10
-205.13705366569479
 20
25.999907809437069
 30
0.0
 11
-206.08705366569481
 21
25.999907809437069
 31
0.0
  0
LINE
  5
828
  8
DATA
  6
CONTINUOUS
 62
     7
 10
-201.73705366569479
 20
23.19990780943705
 30
0.0
 11
-201.38705366569479
 21
25.79990780943708
 31
0.0
  0
LINE
  5
829
  8
DATA
  6
CONTINUOUS
 62
     7
 10
-205.13705366569479
 20
23.19990780943705
 30
0.0
 11
-205.48705366569479
 21
25.79990780943708
 31
0.0
  0
LINE
  5
82A
  8
DATA
  6
CONTINUOUS
 62
     7
 10
-206.08705366569481
 20
25.999907809437069
 30
0.0
 11
-206.08705366569481
 21
25.79990780943708
 31
0.0
  0
LINE
  5
82B
  8
DATA
  6
CONTINUOUS
 62
     7
 10
-200.78705366569491
 20
25.999907809437069
 30
0.0
 11
-200.78705366569491
 21
25.79990780943708
 31
0.0
  0
LINE
  5
82C
  8
DATA
  6
CONTINUOUS
 62
     7
 10
-206.08705366569481
 20
25.79990780943708
 30
0.0
 11
-200.79705366569479
 21
25.79990780943708
 31
0.0
  0
LINE
  5
82D
  8
DATA
  6
CONTINUOUS
 62
     7
 10
-200.78705366569491
 20
31.76316107767326
 30
0.0
 11
-205.13705366569479
 21
31.76316107767326
 31
0.0
  0
LINE
  5
82E
  8
DATA
  6
CONTINUOUS
 62
     7
 10
-205.13705366569479
 20
31.76316107767326
 30
0.0
 11
-206.08705366569481
 21
31.76316107767326
 31
0.0
  0
LINE
  5
82F
  8
DATA
  6
CONTINUOUS
 62
     7
 10
-201.58897674261789
 20
30.063161077673239
 30
0.0
 11
-201.38705366569479
 21
31.56316107767325
 31
0.0
  0
LINE
  5
830
  8
DATA
  6
CONTINUOUS
 62
     7
 10
-205.28513058877169
 20
30.063161077673239
 30
0.0
 11
-205.48705366569479
 21
31.56316107767325
 31
0.0
  0
LINE
  5
831
  8
DATA
  6
CONTINUOUS
 62
     7
 10
-206.08705366569481
 20
31.76316107767326
 30
0.0
 11
-206.08705366569481
 21
31.56316107767325
 31
0.0
  0
LINE
  5
832
  8
DATA
  6
CONTINUOUS
 62
     7
 10
-200.78705366569491
 20
31.76316107767326
 30
0.0
 11
-200.78705366569491
 21
31.56316107767325
 31
0.0
  0
LINE
  5
833
  8
DATA
  6
CONTINUOUS
 62
     7
 10
-206.08705366569481
 20
31.56316107767325
 30
0.0
 11
-200.79705366569479
 21
31.56316107767325
 31
0.0
  0
LINE
  5
834
  8
DATA
  6
CONTINUOUS
 62
     7
 10
-201.58897674261789
 20
30.063161077673239
 30
0.0
 11
-205.28513058877169
 21
30.063161077673239
 31
0.0
  0
TEXT
  5
835
  8
DATA
 62
     7
 10
-202.0833269759311
 20
29.349828655444981
 30
0.0
 40
1.6288411458333329
  1
MIC
 50
180.0
 41
0.8
 11
-202.0833269759311
 21
27.72098750961165
 31
0.0
 73
     3
  0
TEXT
  5
836
  8
DATA
 62
     7
 10
-201.2711007899095
 20
22.23118843247957
 30
0.0
 40
1.6288411458333329
  1
LINE
 50
180.0
 41
0.8
 11
-201.2711007899095
 21
20.602347286646239
 31
0.0
 73
     3
  0
CIRCLE
  5
837
  8
DATA
  6
CONTINUOUS
 62
     7
 10
-182.4538001907828
 20
38.305136928337511
 30
0.0
 40
1.4500000000000171
  0
ARC
  5
838
  8
DATA
  6
CONTINUOUS
 62
     7
 10
-192.35764982813791
 20
29.987828655444979
 30
0.0
 40
2.4500000000000042
 50
260.58380259651068
 51
59.416197403489001
  0
ARC
  5
839
  8
DATA
  6
CONTINUOUS
 62
     7
 10
-192.35764982813791
 20
29.987828655444979
 30
0.0
 40
2.4500000000000002
 50
80.58380259651473
 51
239.41619740348511
  0
TEXT
  5
83A
  8
DATA
 62
     7
 10
-190.48037032073759
 20
35.698349676937411
 30
0.0
 40
1.6288411458333329
  1
MIC
 50
180.0
 41
0.8
 11
-190.48037032073759
 21
34.069508531104077
 31
0.0
 73
     3
  0
TEXT
  5
83B
  8
DATA
 62
     7
 10
-190.48037032073759
 20
37.815016343604071
 30
0.0
 40
1.6288411458333329
  1
GAIN
 50
180.0
 41
0.8
 11
-190.48037032073759
 21
36.186175197770737
 31
0.0
 73
     3
  0
LINE
  5
83C
  8
DATA
  6
CONTINUOUS
 62
     7
 10
-192.75848172952641
 20
27.570840077309541
 30
0.0
 11
-191.11109456804209
 21
32.096999104587283
 31
0.0
  0
LINE
  5
83D
  8
DATA
  6
CONTINUOUS
 62
     7
 10
-193.6042050882329
 20
27.878658206305019
 30
0.0
 11
-191.9568179267502
 21
32.404817233578051
 31
0.0
  0
CIRCLE
  5
83E
  8
DATA
  6
CONTINUOUS
 62
     7
 10
-192.3461009160726
 20
29.987828655444979
 30
0.0
 40
2.6669270706189221
  0
ARC
  5
83F
  8
DATA
  6
CONTINUOUS
 62
     7
 10
-192.3461009160726
 20
29.987828655444979
 30
0.0
 40
4.0000000000000169
 50
206.565051177078
 51
323.13010235415589
  0
LINE
  5
840
  8
DATA
  6
CONTINUOUS
 62
     7
 10
-195.92380968007231
 20
28.198974273445149
 30
0.0
 11
-195.92380968007231
 21
27.60782865544499
 31
0.0
  0
LINE
  5
841
  8
DATA
  6
CONTINUOUS
 62
     7
 10
-195.92380968007231
 20
28.198974273445149
 30
0.0
 11
-195.40610091607249
 21
27.867828655444988
 31
0.0
  0
TEXT
  5
842
  8
DATA
 62
     7
 10
-179.7570359541732
 20
25.695205641087661
 30
0.0
 40
1.3466796875
  1
SIGNAL
 50
180.0
 41
0.8
 11
-179.7570359541732
 21
24.348525953587661
 31
0.0
 73
     3
  0
TEXT
  5
843
  8
DATA
 62
     7
 10
-179.7570359541732
 20
27.445205641087661
 30
0.0
 40
1.3466796875
  1
(Green)
 50
180.0
 41
0.8
 11
-179.7570359541732
 21
26.098525953587661
 31
0.0
 73
     3
  0
TEXT
  5
844
  8
DATA
 62
     7
 10
-180.4023607636704
 20
31.89282865544499
 30
0.0
 40
1.3466796875
  1
CLIP
 50
180.0
 41
0.8
 11
-180.4023607636704
 21
30.54614896794499
 31
0.0
 73
     3
  0
TEXT
  5
845
  8
DATA
 62
     7
 10
-180.4023607636704
 20
33.642828655444987
 30
0.0
 40
1.3466796875
  1
(Red)
 50
180.0
 41
0.8
 11
-180.4023607636704
 21
32.296148967944987
 31
0.0
 73
     3
  0
LINE
  5
846
  8
DATA
  6
CONTINUOUS
 62
     7
 10
-182.4538001907828
 20
36.187828655444982
 30
0.0
 11
-182.4538001907828
 21
34.587828655444987
 31
0.0
  0
LINE
  5
847
  8
DATA
  6
CONTINUOUS
 62
     7
 10
-182.4538001907828
 20
29.371482791891239
 30
0.0
 11
-182.4538001907828
 21
27.987828655444989
 31
0.0
  0
TEXT
  5
848
  8
DATA
 62
     7
 10
-248.55144642205639
 20
12.434219666979089
 30
0.0
 40
3.078125
  1
INPUTS
 50
180.0
 41
0.8
 11
-248.55144642205639
 21
9.3560946669790912
 31
0.0
 73
     3
  0
POLYLINE
  5
849
  8
DATA
  6
CONTINUOUS
 62
     7
 66
     1
 10
0.0
 20
0.0
 30
0.0
 70
     1
  0
VERTEX
  5
104D
  8
DATA
  6
CONTINUOUS
 62
     7
 10
-266.22305045803557
 20
13.14234788899158
 30
0.0
  0
VERTEX
  5
104E
  8
DATA
  6
CONTINUOUS
 62
     7
 10
-243.2230504580356
 20
13.14234788899158
 30
0.0
  0
VERTEX
  5
104F
  8
DATA
  6
CONTINUOUS
 62
     7
 10
-243.2230504580356
 20
8.4423478889915771
 30
0.0
  0
VERTEX
  5
1050
  8
DATA
  6
CONTINUOUS
 62
     7
 10
-266.22305045803557
 20
8.4423478889915771
 30
0.0
  0
SEQEND
  5
1051
  8
DATA
  6
CONTINUOUS
 62
     7
  0
LINE
  5
84F
  8
DATA
  6
CONTINUOUS
 62
     7
 10
-329.5011803818345
 20
41.442347888991563
 30
0.0
 11
-329.5011803818345
 21
10.442347888991559
 31
0.0
  0
ARC
  5
850
  8
DATA
  6
CONTINUOUS
 62
     7
 10
-180.5011803818345
 20
10.442347888991559
 30
0.0
 40
2.0
 50
270.0
 51
0.0
  0
ARC
  5
851
  8
DATA
  6
CONTINUOUS
 62
     7
 10
-180.5011803818345
 20
41.442347888991563
 30
0.0
 40
2.0
 50
0.0
 51
90.0
  0
ARC
  5
852
  8
DATA
  6
CONTINUOUS
 62
     7
 10
-327.5011803818345
 20
10.442347888991559
 30
0.0
 40
2.0
 50
180.0
 51
270.0
  0
ARC
  5
853
  8
DATA
  6
CONTINUOUS
 62
     7
 10
-327.5011803818345
 20
41.442347888991563
 30
0.0
 40
2.0
 50
90.0
 51
180.0
  0
LINE
  5
854
  8
DATA
  6
CONTINUOUS
 62
     7
 10
-254.67559941507139
 20
31.587828655444991
 30
0.0
 11
-254.67559941507139
 21
13.14234788899158
 31
0.0
  0
TEXT
  5
855
  8
DATA
 62
     7
 10
-219.00482819250109
 20
16.364729765136829
 30
0.0
 40
2.0360514322916661
  1
PUSH
 50
180.0
 41
0.8
 11
-219.00482819250109
 21
14.328678332845159
 31
0.0
 73
     3
  0
ARC
  5
856
  8
DATA
  6
CONTINUOUS
 62
     7
 10
-221.64959903833079
 20
28.031604105156958
 30
0.0
 40
10.89999999999984
 50
289.23581260751092
 51
250.76418739248911
  0
CIRCLE
  5
857
  8
DATA
  6
CONTINUOUS
 62
     7
 10
-221.64959903833079
 20
28.031604105156958
 30
0.0
 40
9.8499999999998806
  0
CIRCLE
  5
858
  8
DATA
  6
CONTINUOUS
 62
     7
 10
-221.64959903833079
 20
28.031604105156958
 30
0.0
 40
7.8499999999999091
  0
CIRCLE
  5
859
  8
DATA
  6
CONTINUOUS
 62
     7
 10
-221.64959903833079
 20
31.95274212629942
 30
0.0
 40
1.2649999999999859
  0
CIRCLE
  5
85A
  8
DATA
  6
CONTINUOUS
 62
     7
 10
-217.71811745244469
 20
28.031604105156958
 30
0.0
 40
1.264999999999957
  0
CIRCLE
  5
85B
  8
DATA
  6
CONTINUOUS
 62
     7
 10
-225.58404345771811
 20
28.031604105156958
 30
0.0
 40
1.2649999999999859
  0
ARC
  5
85C
  8
DATA
  6
CONTINUOUS
 62
     7
 10
-223.47745659815249
 20
15.01327027857092
 30
0.0
 40
3.1721424401781761
 50
93.110794313929901
 51
266.88920568607011
  0
ARC
  5
85D
  8
DATA
  6
CONTINUOUS
 62
     7
 10
-219.82174147850921
 20
15.01327027857092
 30
0.0
 40
3.1721424401781801
 50
273.11079431392989
 51
86.889205686070085
  0
LINE
  5
85E
  8
DATA
  6
CONTINUOUS
 62
     7
 10
-219.6495990383309
 20
11.84580210334499
 30
0.0
 11
-223.64959903833079
 21
11.84580210334499
 31
0.0
  0
LINE
  5
85F
  8
DATA
  6
CONTINUOUS
 62
     7
 10
-223.64959903833079
 20
18.180738453796842
 30
0.0
 11
-219.64959903837999
 21
18.180738453796842
 31
0.0
  0
CIRCLE
  5
860
  8
DATA
  6
CONTINUOUS
 62
     7
 10
-231.6366468372828
 20
37.771529113315651
 30
0.0
 40
2.7499999999999338
  0
POLYLINE
  5
861
  8
DATA
  6
CONTINUOUS
 62
     7
 66
     1
 10
0.0
 20
0.0
 30
0.0
  0
VERTEX
  5
1052
  8
DATA
  6
CONTINUOUS
 62
     7
 10
-231.41450355302879
 20
37.074939650985911
 30
0.0
  0
VERTEX
  5
1053
  8
DATA
  6
CONTINUOUS
 62
     7
 10
-231.41450355302879
 20
36.019939650985933
 30
0.0
  0
VERTEX
  5
1054
  8
DATA
  6
CONTINUOUS
 62
     7
 10
-231.80450355302881
 20
36.019939650985933
 30
0.0
  0
VERTEX
  5
1055
  8
DATA
  6
CONTINUOUS
 62
     7
 10
-231.80450355302881
 20
37.074939650985911
 30
0.0
  0
SEQEND
  5
1056
  8
DATA
  6
CONTINUOUS
 62
     7
  0
POLYLINE
  5
867
  8
DATA
  6
CONTINUOUS
 62
     7
 66
     1
 10
0.0
 20
0.0
 30
0.0
  0
VERTEX
  5
1057
  8
DATA
  6
CONTINUOUS
 62
     7
 10
-231.41450355302879
 20
38.464939650985933
 30
0.0
  0
VERTEX
  5
1058
  8
DATA
  6
CONTINUOUS
 62
     7
 10
-231.41450355302879
 20
39.51993965098594
 30
0.0
  0
VERTEX
  5
1059
  8
DATA
  6
CONTINUOUS
 62
     7
 10
-231.80450355302881
 20
39.51993965098594
 30
0.0
  0
VERTEX
  5
105A
  8
DATA
  6
CONTINUOUS
 62
     7
 10
-231.80450355302881
 20
38.464939650985933
 30
0.0
  0
SEQEND
  5
105B
  8
DATA
  6
CONTINUOUS
 62
     7
  0
POLYLINE
  5
86D
  8
DATA
  6
CONTINUOUS
 62
     7
 66
     1
 10
0.0
 20
0.0
 30
0.0
  0
VERTEX
  5
105C
  8
DATA
  6
CONTINUOUS
 62
     7
 10
-230.91450355302879
 20
37.574939650985911
 30
0.0
  0
VERTEX
  5
105D
  8
DATA
  6
CONTINUOUS
 62
     7
 10
-229.8595035530289
 20
37.574939650985911
 30
0.0
  0
VERTEX
  5
105E
  8
DATA
  6
CONTINUOUS
 62
     7
 10
-229.8595035530289
 20
37.964939650985933
 30
0.0
  0
VERTEX
  5
105F
  8
DATA
  6
CONTINUOUS
 62
     7
 10
-230.91450355302879
 20
37.964939650985933
 30
0.0
  0
SEQEND
  5
1060
  8
DATA
  6
CONTINUOUS
 62
     7
  0
POLYLINE
  5
873
  8
DATA
  6
CONTINUOUS
 62
     7
 66
     1
 10
0.0
 20
0.0
 30
0.0
  0
VERTEX
  5
1061
  8
DATA
  6
CONTINUOUS
 62
     7
 10
-232.30450355302881
 20
37.574939650985911
 30
0.0
  0
VERTEX
  5
1062
  8
DATA
  6
CONTINUOUS
 62
     7
 10
-233.35950355302879
 20
37.574939650985911
 30
0.0
  0
VERTEX
  5
1063
  8
DATA
  6
CONTINUOUS
 62
     7
 10
-233.35950355302879
 20
37.964939650985933
 30
0.0
  0
VERTEX
  5
1064
  8
DATA
  6
CONTINUOUS
 62
     7
 10
-232.30450355302881
 20
37.964939650985933
 30
0.0
  0
SEQEND
  5
1065
  8
DATA
  6
CONTINUOUS
 62
     7
  0
ARC
  5
879
  8
DATA
  6
CONTINUOUS
 62
     7
 10
-232.30450355302881
 20
38.464939650985933
 30
0.0
 40
0.5
 50
270.0
 51
0.0
  0
ARC
  5
87A
  8
DATA
  6
CONTINUOUS
 62
     7
 10
-232.30450355302881
 20
37.074939650985911
 30
0.0
 40
0.5
 50
0.0
 51
90.0
  0
ARC
  5
87B
  8
DATA
  6
CONTINUOUS
 62
     7
 10
-230.91450355302879
 20
37.074939650985911
 30
0.0
 40
0.5
 50
90.0
 51
180.0
  0
ARC
  5
87C
  8
DATA
  6
CONTINUOUS
 62
     7
 10
-230.91450355302879
 20
38.464939650985933
 30
0.0
 40
0.5
 50
180.0
 51
270.0
  0
CIRCLE
  5
87D
  8
DATA
  6
CONTINUOUS
 62
     7
 10
-211.83574356696769
 20
17.96993965098612
 30
0.0
 40
2.7499999999999449
  0
POLYLINE
  5
87E
  8
DATA
  6
CONTINUOUS
 62
     7
 66
     1
 10
0.0
 20
0.0
 30
0.0
  0
VERTEX
  5
1066
  8
DATA
  6
CONTINUOUS
 62
     7
 10
-211.61360028271369
 20
17.27335018865638
 30
0.0
  0
VERTEX
  5
1067
  8
DATA
  6
CONTINUOUS
 62
     7
 10
-211.61360028271369
 20
16.218350188656402
 30
0.0
  0
VERTEX
  5
1068
  8
DATA
  6
CONTINUOUS
 62
     7
 10
-212.00360028271359
 20
16.218350188656402
 30
0.0
  0
VERTEX
  5
1069
  8
DATA
  6
CONTINUOUS
 62
     7
 10
-212.00360028271359
 20
17.27335018865638
 30
0.0
  0
SEQEND
  5
106A
  8
DATA
  6
CONTINUOUS
 62
     7
  0
POLYLINE
  5
884
  8
DATA
  6
CONTINUOUS
 62
     7
 66
     1
 10
0.0
 20
0.0
 30
0.0
  0
VERTEX
  5
106B
  8
DATA
  6
CONTINUOUS
 62
     7
 10
-211.61360028271369
 20
18.663350188656391
 30
0.0
  0
VERTEX
  5
106C
  8
DATA
  6
CONTINUOUS
 62
     7
 10
-211.61360028271369
 20
19.71835018865638
 30
0.0
  0
VERTEX
  5
106D
  8
DATA
  6
CONTINUOUS
 62
     7
 10
-212.00360028271359
 20
19.71835018865638
 30
0.0
  0
VERTEX
  5
106E
  8
DATA
  6
CONTINUOUS
 62
     7
 10
-212.00360028271359
 20
18.663350188656391
 30
0.0
  0
SEQEND
  5
106F
  8
DATA
  6
CONTINUOUS
 62
     7
  0
POLYLINE
  5
88A
  8
DATA
  6
CONTINUOUS
 62
     7
 66
     1
 10
0.0
 20
0.0
 30
0.0
  0
VERTEX
  5
1070
  8
DATA
  6
CONTINUOUS
 62
     7
 10
-211.11360028271369
 20
17.77335018865638
 30
0.0
  0
VERTEX
  5
1071
  8
DATA
  6
CONTINUOUS
 62
     7
 10
-210.05860028271371
 20
17.77335018865638
 30
0.0
  0
VERTEX
  5
1072
  8
DATA
  6
CONTINUOUS
 62
     7
 10
-210.05860028271371
 20
18.163350188656391
 30
0.0
  0
VERTEX
  5
1073
  8
DATA
  6
CONTINUOUS
 62
     7
 10
-211.11360028271369
 20
18.163350188656391
 30
0.0
  0
SEQEND
  5
1074
  8
DATA
  6
CONTINUOUS
 62
     7
  0
POLYLINE
  5
890
  8
DATA
  6
CONTINUOUS
 62
     7
 66
     1
 10
0.0
 20
0.0
 30
0.0
  0
VERTEX
  5
1075
  8
DATA
  6
CONTINUOUS
 62
     7
 10
-212.50360028271359
 20
17.77335018865638
 30
0.0
  0
VERTEX
  5
1076
  8
DATA
  6
CONTINUOUS
 62
     7
 10
-213.55860028271371
 20
17.77335018865638
 30
0.0
  0
VERTEX
  5
1077
  8
DATA
  6
CONTINUOUS
 62
     7
 10
-213.55860028271371
 20
18.163350188656391
 30
0.0
  0
VERTEX
  5
1078
  8
DATA
  6
CONTINUOUS
 62
     7
 10
-212.50360028271359
 20
18.163350188656391
 30
0.0
  0
SEQEND
  5
1079
  8
DATA
  6
CONTINUOUS
 62
     7
  0
ARC
  5
896
  8
DATA
  6
CONTINUOUS
 62
     7
 10
-212.50360028271359
 20
18.663350188656391
 30
0.0
 40
0.5
 50
270.0
 51
0.0
  0
ARC
  5
897
  8
DATA
  6
CONTINUOUS
 62
     7
 10
-212.50360028271359
 20
17.27335018865638
 30
0.0
 40
0.5
 50
0.0
 51
90.0
  0
ARC
  5
898
  8
DATA
  6
CONTINUOUS
 62
     7
 10
-211.11360028271369
 20
17.27335018865638
 30
0.0
 40
0.5
 50
90.0
 51
180.0
  0
ARC
  5
899
  8
DATA
  6
CONTINUOUS
 62
     7
 10
-211.11360028271369
 20
18.663350188656391
 30
0.0
 40
0.499999999999984
 50
206.4401491434395
 51
270.0
  0
POLYLINE
  5
89A
  8
DATA
  6
CONTINUOUS
 62
     7
 66
     1
 10
0.0
 20
0.0
 30
0.0
 70
   129
  0
VERTEX
  5
107A
  8
DATA
  6
CONTINUOUS
 62
     7
 10
-144.02435983271019
 20
41.80248357605111
 30
0.0
  0
VERTEX
  5
107B
  8
DATA
  6
CONTINUOUS
 62
     7
 10
-112.0243695793465
 20
41.80248357605111
 30
0.0
  0
VERTEX
  5
107C
  8
DATA
  6
CONTINUOUS
 62
     7
 10
-112.0243695793465
 20
33.0524332593465
 30
0.0
  0
VERTEX
  5
107D
  8
DATA
  6
CONTINUOUS
 62
     7
 10
-116.14932063932351
 20
33.0524332593465
 30
0.0
  0
VERTEX
  5
107E
  8
DATA
  6
CONTINUOUS
 62
     7
 10
-116.14932063932351
 20
30.552370442641831
 30
0.0
  0
VERTEX
  5
107F
  8
DATA
  6
CONTINUOUS
 62
     7
 10
-118.649383456028
 20
30.552370442641831
 30
0.0
  0
VERTEX
  5
1080
  8
DATA
  6
CONTINUOUS
 62
     7
 10
-118.649383456028
 20
33.0524332593465
 30
0.0
  0
VERTEX
  5
1081
  8
DATA
  6
CONTINUOUS
 62
     7
 10
-137.39934595602821
 20
33.0524332593465
 30
0.0
  0
VERTEX
  5
1082
  8
DATA
  6
CONTINUOUS
 62
     7
 10
-137.39934595602821
 20
30.552370442641831
 30
0.0
  0
VERTEX
  5
1083
  8
DATA
  6
CONTINUOUS
 62
     7
 10
-139.8994087727329
 20
30.552370442641831
 30
0.0
  0
VERTEX
  5
1084
  8
DATA
  6
CONTINUOUS
 62
     7
 10
-139.8994087727329
 20
33.0524332593465
 30
0.0
  0
VERTEX
  5
1085
  8
DATA
  6
CONTINUOUS
 62
     7
 10
-144.02435983271019
 20
33.0524332593465
 30
0.0
  0
VERTEX
  5
1086
  8
DATA
  6
CONTINUOUS
 62
     7
 10
-144.02435983271019
 20
41.80248357605111
 30
0.0
  0
SEQEND
  5
1087
  8
DATA
  6
CONTINUOUS
 62
     7
  0
POLYLINE
  5
8A9
  8
DATA
  6
CONTINUOUS
 62
     7
 66
     1
 10
0.0
 20
0.0
 30
0.0
 70
   129
  0
VERTEX
  5
1088
  8
DATA
  6
CONTINUOUS
 62
     7
 10
-113.0239878058005
 20
33.247067201675279
 30
0.0
  0
VERTEX
  5
1089
  8
DATA
  6
CONTINUOUS
 62
     7
 10
-143.0247416062561
 20
33.247067201675279
 30
0.0
  0
VERTEX
  5
108A
  8
DATA
  6
CONTINUOUS
 62
     7
 10
-143.0247416062561
 20
41.607849633722672
 30
0.0
  0
VERTEX
  5
108B
  8
DATA
  6
CONTINUOUS
 62
     7
 10
-113.0239878058005
 20
41.607849633722672
 30
0.0
  0
VERTEX
  5
108C
  8
DATA
  6
CONTINUOUS
 62
     7
 10
-113.0239878058005
 20
33.247067201675279
 30
0.0
  0
SEQEND
  5
108D
  8
DATA
  6
CONTINUOUS
 62
     7
  0
POLYLINE
  5
8B0
  8
DATA
  6
CONTINUOUS
 62
     7
 66
     1
 10
0.0
 20
0.0
 30
0.0
 70
   129
  0
VERTEX
  5
108E
  8
DATA
  6
CONTINUOUS
 62
     7
 10
-114.5193461432027
 20
34.117833689305392
 30
0.0
  0
VERTEX
  5
108F
  8
DATA
  6
CONTINUOUS
 62
     7
 10
-114.5193461432027
 20
34.954352741090368
 30
0.0
  0
VERTEX
  5
1090
  8
DATA
  6
CONTINUOUS
 62
     7
 10
-113.0036427944072
 20
34.954352741090368
 30
0.0
  0
VERTEX
  5
1091
  8
DATA
  6
CONTINUOUS
 62
     7
 10
-113.0036427944072
 20
33.920826162314441
 30
0.0
  0
VERTEX
  5
1092
  8
DATA
  6
CONTINUOUS
 62
     7
 10
-143.00371842781649
 20
33.920826162314441
 30
0.0
  0
VERTEX
  5
1093
  8
DATA
  6
CONTINUOUS
 62
     7
 10
-143.00371842781649
 20
34.954352741090368
 30
0.0
  0
VERTEX
  5
1094
  8
DATA
  6
CONTINUOUS
 62
     7
 10
-141.4876759954976
 20
34.954352741090368
 30
0.0
  0
VERTEX
  5
1095
  8
DATA
  6
CONTINUOUS
 62
     7
 10
-141.4876759954976
 20
34.117833689305392
 30
0.0
  0
VERTEX
  5
1096
  8
DATA
  6
CONTINUOUS
 62
     7
 10
-139.51929614320281
 20
34.117833689305392
 30
0.0
  0
VERTEX
  5
1097
  8
DATA
  6
CONTINUOUS
 62
     7
 10
-139.51929614320281
 20
34.954352741090368
 30
0.0
  0
VERTEX
  5
1098
  8
DATA
  6
CONTINUOUS
 62
     7
 10
-136.4878894456115
 20
34.954352741090368
 30
0.0
  0
VERTEX
  5
1099
  8
DATA
  6
CONTINUOUS
 62
     7
 10
-136.4878894456115
 20
34.117833689305392
 30
0.0
  0
VERTEX
  5
109A
  8
DATA
  6
CONTINUOUS
 62
     7
 10
-134.51917050979321
 20
34.117833689305392
 30
0.0
  0
VERTEX
  5
109B
  8
DATA
  6
CONTINUOUS
 62
     7
 10
-134.51917050979321
 20
34.954352741090368
 30
0.0
  0
VERTEX
  5
109C
  8
DATA
  6
CONTINUOUS
 62
     7
 10
-131.48776381220199
 20
34.954352741090368
 30
0.0
  0
VERTEX
  5
109D
  8
DATA
  6
CONTINUOUS
 62
     7
 10
-131.48776381220199
 20
34.117833689305392
 30
0.0
  0
VERTEX
  5
109E
  8
DATA
  6
CONTINUOUS
 62
     7
 10
-129.5193839599072
 20
34.117833689305392
 30
0.0
  0
VERTEX
  5
109F
  8
DATA
  6
CONTINUOUS
 62
     7
 10
-129.5193839599072
 20
34.954352741090368
 30
0.0
  0
VERTEX
  5
10A0
  8
DATA
  6
CONTINUOUS
 62
     7
 10
-126.48797726231599
 20
34.954352741090368
 30
0.0
  0
VERTEX
  5
10A1
  8
DATA
  6
CONTINUOUS
 62
     7
 10
-126.48797726231599
 20
34.117833689305392
 30
0.0
  0
VERTEX
  5
10A2
  8
DATA
  6
CONTINUOUS
 62
     7
 10
-124.519258326498
 20
34.117833689305392
 30
0.0
  0
VERTEX
  5
10A3
  8
DATA
  6
CONTINUOUS
 62
     7
 10
-124.519258326498
 20
34.954352741090368
 30
0.0
  0
VERTEX
  5
10A4
  8
DATA
  6
CONTINUOUS
 62
     7
 10
-121.4878516289068
 20
34.954352741090368
 30
0.0
  0
VERTEX
  5
10A5
  8
DATA
  6
CONTINUOUS
 62
     7
 10
-121.4878516289068
 20
34.117833689305392
 30
0.0
  0
VERTEX
  5
10A6
  8
DATA
  6
CONTINUOUS
 62
     7
 10
-119.5194717766117
 20
34.117833689305392
 30
0.0
  0
VERTEX
  5
10A7
  8
DATA
  6
CONTINUOUS
 62
     7
 10
-119.5194717766117
 20
34.954352741090368
 30
0.0
  0
VERTEX
  5
10A8
  8
DATA
  6
CONTINUOUS
 62
     7
 10
-116.4877259954973
 20
34.954352741090368
 30
0.0
  0
VERTEX
  5
10A9
  8
DATA
  6
CONTINUOUS
 62
     7
 10
-116.4877259954973
 20
34.117833689305392
 30
0.0
  0
VERTEX
  5
10AA
  8
DATA
  6
CONTINUOUS
 62
     7
 10
-114.5193461432027
 20
34.117833689305392
 30
0.0
  0
SEQEND
  5
10AB
  8
DATA
  6
CONTINUOUS
 62
     7
  0
LINE
  5
8CF
  8
DATA
  6
CONTINUOUS
 62
     7
 10
-113.0036427944072
 20
33.920826162314441
 30
0.0
 11
-143.00371842781649
 21
33.920826162314441
 31
0.0
  0
POLYLINE
  5
8D0
  8
DATA
  6
CONTINUOUS
 62
     7
 66
     1
 10
0.0
 20
0.0
 30
0.0
 70
   129
  0
VERTEX
  5
10AC
  8
DATA
  6
CONTINUOUS
 62
     7
 10
-140.99566580330469
 20
37.612089396092571
 30
0.0
  0
VERTEX
  5
10AD
  8
DATA
  6
CONTINUOUS
 62
     7
 10
-140.01130633539569
 20
37.612089396092571
 30
0.0
  0
VERTEX
  5
10AE
  8
DATA
  6
CONTINUOUS
 62
     7
 10
-140.01130633539569
 20
36.62772992818357
 30
0.0
  0
VERTEX
  5
10AF
  8
DATA
  6
CONTINUOUS
 62
     7
 10
-140.99566580330469
 20
36.62772992818357
 30
0.0
  0
VERTEX
  5
10B0
  8
DATA
  6
CONTINUOUS
 62
     7
 10
-140.99566580330469
 20
37.612089396092571
 30
0.0
  0
SEQEND
  5
10B1
  8
DATA
  6
CONTINUOUS
 62
     7
  0
POLYLINE
  5
8D7
  8
DATA
  6
CONTINUOUS
 62
     7
 66
     1
 10
0.0
 20
0.0
 30
0.0
 70
   129
  0
VERTEX
  5
10B2
  8
DATA
  6
CONTINUOUS
 62
     7
 10
-135.99554016989541
 20
37.612089396092571
 30
0.0
  0
VERTEX
  5
10B3
  8
DATA
  6
CONTINUOUS
 62
     7
 10
-135.01151978550919
 20
37.612089396092571
 30
0.0
  0
VERTEX
  5
10B4
  8
DATA
  6
CONTINUOUS
 62
     7
 10
-135.01151978550919
 20
36.62772992818357
 30
0.0
  0
VERTEX
  5
10B5
  8
DATA
  6
CONTINUOUS
 62
     7
 10
-135.99554016989541
 20
36.62772992818357
 30
0.0
  0
VERTEX
  5
10B6
  8
DATA
  6
CONTINUOUS
 62
     7
 10
-135.99554016989541
 20
37.612089396092571
 30
0.0
  0
SEQEND
  5
10B7
  8
DATA
  6
CONTINUOUS
 62
     7
  0
POLYLINE
  5
8DE
  8
DATA
  6
CONTINUOUS
 62
     7
 66
     1
 10
0.0
 20
0.0
 30
0.0
 70
   129
  0
VERTEX
  5
10B8
  8
DATA
  6
CONTINUOUS
 62
     7
 10
-130.99575362000911
 20
37.612089396092571
 30
0.0
  0
VERTEX
  5
10B9
  8
DATA
  6
CONTINUOUS
 62
     7
 10
-130.01139415210011
 20
37.612089396092571
 30
0.0
  0
VERTEX
  5
10BA
  8
DATA
  6
CONTINUOUS
 62
     7
 10
-130.01139415210011
 20
36.62772992818357
 30
0.0
  0
VERTEX
  5
10BB
  8
DATA
  6
CONTINUOUS
 62
     7
 10
-130.99575362000911
 20
36.62772992818357
 30
0.0
  0
VERTEX
  5
10BC
  8
DATA
  6
CONTINUOUS
 62
     7
 10
-130.99575362000911
 20
37.612089396092571
 30
0.0
  0
SEQEND
  5
10BD
  8
DATA
  6
CONTINUOUS
 62
     7
  0
POLYLINE
  5
8E5
  8
DATA
  6
CONTINUOUS
 62
     7
 66
     1
 10
0.0
 20
0.0
 30
0.0
 70
   129
  0
VERTEX
  5
10BE
  8
DATA
  6
CONTINUOUS
 62
     7
 10
-125.9956279865999
 20
37.612089396092571
 30
0.0
  0
VERTEX
  5
10BF
  8
DATA
  6
CONTINUOUS
 62
     7
 10
-125.0116076022141
 20
37.612089396092571
 30
0.0
  0
VERTEX
  5
10C0
  8
DATA
  6
CONTINUOUS
 62
     7
 10
-125.0116076022141
 20
36.62772992818357
 30
0.0
  0
VERTEX
  5
10C1
  8
DATA
  6
CONTINUOUS
 62
     7
 10
-125.9956279865999
 20
36.62772992818357
 30
0.0
  0
VERTEX
  5
10C2
  8
DATA
  6
CONTINUOUS
 62
     7
 10
-125.9956279865999
 20
37.612089396092571
 30
0.0
  0
SEQEND
  5
10C3
  8
DATA
  6
CONTINUOUS
 62
     7
  0
POLYLINE
  5
8EC
  8
DATA
  6
CONTINUOUS
 62
     7
 66
     1
 10
0.0
 20
0.0
 30
0.0
 70
   129
  0
VERTEX
  5
10C4
  8
DATA
  6
CONTINUOUS
 62
     7
 10
-120.9958414367139
 20
37.612089396092571
 30
0.0
  0
VERTEX
  5
10C5
  8
DATA
  6
CONTINUOUS
 62
     7
 10
-120.0114819688046
 20
37.612089396092571
 30
0.0
  0
VERTEX
  5
10C6
  8
DATA
  6
CONTINUOUS
 62
     7
 10
-120.0114819688046
 20
36.62772992818357
 30
0.0
  0
VERTEX
  5
10C7
  8
DATA
  6
CONTINUOUS
 62
     7
 10
-120.9958414367139
 20
36.62772992818357
 30
0.0
  0
VERTEX
  5
10C8
  8
DATA
  6
CONTINUOUS
 62
     7
 10
-120.9958414367139
 20
37.612089396092571
 30
0.0
  0
SEQEND
  5
10C9
  8
DATA
  6
CONTINUOUS
 62
     7
  0
POLYLINE
  5
8F3
  8
DATA
  6
CONTINUOUS
 62
     7
 66
     1
 10
0.0
 20
0.0
 30
0.0
 70
   129
  0
VERTEX
  5
10CA
  8
DATA
  6
CONTINUOUS
 62
     7
 10
-115.99571580330441
 20
37.612089396092571
 30
0.0
  0
VERTEX
  5
10CB
  8
DATA
  6
CONTINUOUS
 62
     7
 10
-115.0115258771571
 20
37.612089396092571
 30
0.0
  0
VERTEX
  5
10CC
  8
DATA
  6
CONTINUOUS
 62
     7
 10
-115.0115258771571
 20
36.62772992818357
 30
0.0
  0
VERTEX
  5
10CD
  8
DATA
  6
CONTINUOUS
 62
     7
 10
-115.99571580330441
 20
36.62772992818357
 30
0.0
  0
VERTEX
  5
10CE
  8
DATA
  6
CONTINUOUS
 62
     7
 10
-115.99571580330441
 20
37.612089396092571
 30
0.0
  0
SEQEND
  5
10CF
  8
DATA
  6
CONTINUOUS
 62
     7
  0
LINE
  5
8FA
  8
DATA
  6
CONTINUOUS
 62
     7
 10
-130.58444530634279
 20
28.086215978259361
 30
0.0
 11
-130.58444530634279
 21
27.48230822340361
 31
0.0
  0
POLYLINE
  5
8FB
  8
DATA
  6
CONTINUOUS
 62
     7
 66
     1
 10
0.0
 20
0.0
 30
0.0
 70
   128
  0
VERTEX
  5
10D0
  8
DATA
  6
CONTINUOUS
 62
     7
 10
-129.26642765158459
 20
28.991908068781019
 30
0.0
  0
VERTEX
  5
10D1
  8
DATA
  6
CONTINUOUS
 62
     7
 10
-129.82998446717701
 20
28.086215978259361
 30
0.0
  0
VERTEX
  5
10D2
  8
DATA
  6
CONTINUOUS
 62
     7
 10
-131.338567061985
 20
28.086215978259361
 30
0.0
  0
VERTEX
  5
10D3
  8
DATA
  6
CONTINUOUS
 62
     7
 10
-130.77467116286951
 20
28.991908068781019
 30
0.0
  0
SEQEND
  5
10D4
  8
DATA
  6
CONTINUOUS
 62
     7
  0
LINE
  5
901
  8
DATA
  6
CONTINUOUS
 62
     7
 10
-130.58444530634279
 20
28.086215978259361
 30
0.0
 11
-130.02088849075011
 21
28.991908068781019
 31
0.0
  0
LINE
  5
902
  8
DATA
  6
CONTINUOUS
 62
     7
 10
-115.58440748963829
 20
28.086215978259361
 30
0.0
 11
-115.58440748963829
 21
27.48230822340361
 31
0.0
  0
POLYLINE
  5
903
  8
DATA
  6
CONTINUOUS
 62
     7
 66
     1
 10
0.0
 20
0.0
 30
0.0
 70
   128
  0
VERTEX
  5
10D5
  8
DATA
  6
CONTINUOUS
 62
     7
 10
-114.2663898348802
 20
28.991908068781019
 30
0.0
  0
VERTEX
  5
10D6
  8
DATA
  6
CONTINUOUS
 62
     7
 10
-114.82994665047249
 20
28.086215978259361
 30
0.0
  0
VERTEX
  5
10D7
  8
DATA
  6
CONTINUOUS
 62
     7
 10
-116.3388683288037
 20
28.086215978259361
 30
0.0
  0
VERTEX
  5
10D8
  8
DATA
  6
CONTINUOUS
 62
     7
 10
-115.7746333461649
 20
28.991908068781019
 30
0.0
  0
SEQEND
  5
10D9
  8
DATA
  6
CONTINUOUS
 62
     7
  0
LINE
  5
909
  8
DATA
  6
CONTINUOUS
 62
     7
 10
-115.58440748963829
 20
28.086215978259361
 30
0.0
 11
-115.020681132284
 21
28.991908068781019
 31
0.0
  0
LINE
  5
90A
  8
DATA
  6
CONTINUOUS
 62
     7
 10
-124.7725537183434
 20
28.212694132420442
 30
0.0
 11
-126.18076759027829
 21
28.212694132420442
 31
0.0
  0
LINE
  5
90B
  8
DATA
  6
CONTINUOUS
 62
     7
 10
-139.77225245152499
 20
28.212694132420442
 30
0.0
 11
-141.18080540698321
 21
28.212694132420442
 31
0.0
  0
LINE
  5
90C
  8
DATA
  6
CONTINUOUS
 62
     7
 10
-119.8222733628476
 20
28.212694132420442
 30
0.0
 11
-121.2308263183057
 21
28.212694132420442
 31
0.0
  0
LINE
  5
90D
  8
DATA
  6
CONTINUOUS
 62
     7
 10
-120.52654984057649
 20
28.916631526626141
 30
0.0
 11
-120.52654984057649
 21
27.50841765469152
 31
0.0
  0
LINE
  5
90E
  8
DATA
  6
CONTINUOUS
 62
     7
 10
-134.82231117955229
 20
28.212694132420442
 30
0.0
 11
-136.23052505148721
 21
28.212694132420442
 31
0.0
  0
LINE
  5
90F
  8
DATA
  6
CONTINUOUS
 62
     7
 10
-135.52624857375801
 20
28.916631526626141
 30
0.0
 11
-135.52624857375801
 21
27.50841765469152
 31
0.0
  0
POLYLINE
  5
910
  8
DATA
  6
CONTINUOUS
 62
     7
 66
     1
 10
0.0
 20
0.0
 30
0.0
 70
   128
  0
VERTEX
  5
10DA
  8
DATA
  6
CONTINUOUS
 62
     7
 10
-112.46890807828849
 20
29.330652508478479
 30
0.0
  0
VERTEX
  5
10DB
  8
DATA
  6
CONTINUOUS
 62
     7
 10
-112.46890807828849
 20
26.020180071276648
 30
0.0
  0
VERTEX
  5
10DC
  8
DATA
  6
CONTINUOUS
 62
     7
 10
-127.2376909321564
 20
26.020180071276648
 30
0.0
  0
VERTEX
  5
10DD
  8
DATA
  6
CONTINUOUS
 62
     7
 10
-127.2376909321564
 20
29.330652508478479
 30
0.0
  0
SEQEND
  5
10DE
  8
DATA
  6
CONTINUOUS
 62
     7
  0
POLYLINE
  5
916
  8
DATA
  6
CONTINUOUS
 62
     7
 66
     1
 10
0.0
 20
0.0
 30
0.0
 70
   128
  0
VERTEX
  5
10DF
  8
DATA
  6
CONTINUOUS
 62
     7
 10
-128.7374573553605
 20
29.330652508478479
 30
0.0
  0
VERTEX
  5
10E0
  8
DATA
  6
CONTINUOUS
 62
     7
 10
-128.7374573553605
 20
26.020180071276648
 30
0.0
  0
VERTEX
  5
10E1
  8
DATA
  6
CONTINUOUS
 62
     7
 10
-143.50624020922911
 20
26.020180071276648
 30
0.0
  0
VERTEX
  5
10E2
  8
DATA
  6
CONTINUOUS
 62
     7
 10
-143.50624020922911
 20
29.330652508478479
 30
0.0
  0
SEQEND
  5
10E3
  8
DATA
  6
CONTINUOUS
 62
     7
  0
ARC
  5
91C
  8
DATA
  6
CONTINUOUS
 62
     7
 10
-115.5138781168083
 20
37.146915721487453
 30
0.0
 40
3.713184139998424
 50
47.890166272822391
 51
132.10983372717851
  0
ARC
  5
91D
  8
DATA
  6
CONTINUOUS
 62
     7
 10
-120.5036617027593
 20
37.120824114800413
 30
0.0
 40
3.7392615793403081
 50
48.044543551972197
 51
131.9554564480278
  0
ARC
  5
91E
  8
DATA
  6
CONTINUOUS
 62
     7
 10
-125.50361779440701
 20
37.120381914739752
 30
0.0
 40
3.7397037794009642
 50
48.047141244816721
 51
131.95285875518371
  0
ARC
  5
91F
  8
DATA
  6
CONTINUOUS
 62
     7
 10
-130.5035738860546
 20
37.120824114800932
 30
0.0
 40
3.739261579339793
 50
48.04454355196922
 51
131.9554564480307
  0
ARC
  5
920
  8
DATA
  6
CONTINUOUS
 62
     7
 10
-135.50352997770241
 20
37.120381914739241
 30
0.0
 40
3.7397037794015162
 50
48.047141244819059
 51
131.95285875518061
  0
ARC
  5
921
  8
DATA
  6
CONTINUOUS
 62
     7
 10
-140.51416720033171
 20
37.092906942792709
 30
0.0
 40
3.7671787513480401
 50
48.207600377215329
 51
131.7923996227843
  0
ARC
  5
922
  8
DATA
  6
CONTINUOUS
 62
     7
 10
-115.5138781168083
 20
37.088572685191977
 30
0.0
 40
4.5192769485305799
 50
56.567869501554142
 51
123.4321304984467
  0
ARC
  5
923
  8
DATA
  6
CONTINUOUS
 62
     7
 10
-120.5036617027593
 20
37.055198098231692
 30
0.0
 40
4.5526515354909796
 50
56.694222263636753
 51
123.3057777363632
  0
ARC
  5
924
  8
DATA
  6
CONTINUOUS
 62
     7
 10
-125.495291396453
 20
37.082469628939343
 30
0.0
 40
4.5253876647858116
 50
56.590935537306692
 51
123.40906446269361
  0
ARC
  5
925
  8
DATA
  6
CONTINUOUS
 62
     7
 10
-130.4952474881006
 20
37.027361631203391
 30
0.0
 40
4.5804955703641923
 50
56.798374252587138
 51
123.20162574741271
  0
ARC
  5
926
  8
DATA
  6
CONTINUOUS
 62
     7
 10
-135.50352997770241
 20
37.054631274051687
 30
0.0
 40
4.5532183596710061
 50
56.696355838467163
 51
123.3036441615325
  0
ARC
  5
927
  8
DATA
  6
CONTINUOUS
 62
     7
 10
-140.51416720033171
 20
37.01941310062476
 30
0.0
 40
4.5884365330979371
 50
56.828120668239201
 51
123.17187933176049
  0
TEXT
  5
928
  8
DATA
 62
     7
 10
-121.88540999804491
 20
12.434219666979089
 30
0.0
 40
3.078125
  1
OUTPUTS
 50
180.0
 41
0.8
 11
-121.88540999804491
 21
9.3560946669790912
 31
0.0
 73
     3
  0
POLYLINE
  5
929
  8
DATA
  6
CONTINUOUS
 62
     7
 66
     1
 10
0.0
 20
0.0
 30
0.0
 70
     1
  0
VERTEX
  5
10E4
  8
DATA
  6
CONTINUOUS
 62
     7
 10
-139.55701403402421
 20
13.14234788899158
 30
0.0
  0
VERTEX
  5
10E5
  8
DATA
  6
CONTINUOUS
 62
     7
 10
-116.55701403402421
 20
13.14234788899158
 30
0.0
  0
VERTEX
  5
10E6
  8
DATA
  6
CONTINUOUS
 62
     7
 10
-116.55701403402421
 20
8.4423478889915771
 30
0.0
  0
VERTEX
  5
10E7
  8
DATA
  6
CONTINUOUS
 62
     7
 10
-139.55701403402421
 20
8.4423478889915771
 30
0.0
  0
SEQEND
  5
10E8
  8
DATA
  6
CONTINUOUS
 62
     7
  0
LINE
  5
92F
  8
DATA
  6
CONTINUOUS
 62
     7
 10
-128.00956299105999
 20
31.587828655444991
 30
0.0
 11
-128.00956299105999
 21
13.14234788899158
 31
0.0
  0
CIRCLE
  5
930
  8
DATA
  6
CONTINUOUS
 62
     7
 10
-160.93802454960189
 20
27.98363094354665
 30
0.0
 40
11.0
  0
CIRCLE
  5
931
  8
DATA
  6
CONTINUOUS
 62
     7
 10
-160.93793314064399
 20
27.918475065931698
 30
0.0
 40
8.2499999999999876
  0
CIRCLE
  5
932
  8
DATA
  6
CONTINUOUS
 62
     7
 10
-156.94206635104069
 20
28.20080409602345
 30
0.0
 40
1.175000000000008
  0
CIRCLE
  5
933
  8
DATA
  6
CONTINUOUS
 62
     7
 10
-164.93823804050049
 20
28.183630943546639
 30
0.0
 40
1.1750000000000109
  0
CIRCLE
  5
934
  8
DATA
  6
CONTINUOUS
 62
     7
 10
-160.9380754276456
 20
31.867393401887782
 30
0.0
 40
1.1750000000000109
  0
CIRCLE
  5
935
  8
DATA
  6
CONTINUOUS
 62
     7
 10
-170.86720679443681
 20
37.819165656784747
 30
0.0
 40
2.7500000000000049
  0
POLYLINE
  5
936
  8
DATA
  6
CONTINUOUS
 62
     7
 66
     1
 10
0.0
 20
0.0
 30
0.0
  0
VERTEX
  5
10E9
  8
DATA
  6
CONTINUOUS
 62
     7
 10
-170.64506351018281
 20
37.122576194455007
 30
0.0
  0
VERTEX
  5
10EA
  8
DATA
  6
CONTINUOUS
 62
     7
 10
-170.64506351018281
 20
36.067576194455029
 30
0.0
  0
VERTEX
  5
10EB
  8
DATA
  6
CONTINUOUS
 62
     7
 10
-171.03506351018279
 20
36.067576194455029
 30
0.0
  0
VERTEX
  5
10EC
  8
DATA
  6
CONTINUOUS
 62
     7
 10
-171.03506351018279
 20
37.122576194455007
 30
0.0
  0
SEQEND
  5
10ED
  8
DATA
  6
CONTINUOUS
 62
     7
  0
POLYLINE
  5
93C
  8
DATA
  6
CONTINUOUS
 62
     7
 66
     1
 10
0.0
 20
0.0
 30
0.0
  0
VERTEX
  5
10EE
  8
DATA
  6
CONTINUOUS
 62
     7
 10
-170.64506351018281
 20
38.512576194455022
 30
0.0
  0
VERTEX
  5
10EF
  8
DATA
  6
CONTINUOUS
 62
     7
 10
-170.64506351018281
 20
39.567576194455029
 30
0.0
  0
VERTEX
  5
10F0
  8
DATA
  6
CONTINUOUS
 62
     7
 10
-171.03506351018279
 20
39.567576194455029
 30
0.0
  0
VERTEX
  5
10F1
  8
DATA
  6
CONTINUOUS
 62
     7
 10
-171.03506351018279
 20
38.512576194455022
 30
0.0
  0
SEQEND
  5
10F2
  8
DATA
  6
CONTINUOUS
 62
     7
  0
POLYLINE
  5
942
  8
DATA
  6
CONTINUOUS
 62
     7
 66
     1
 10
0.0
 20
0.0
 30
0.0
  0
VERTEX
  5
10F3
  8
DATA
  6
CONTINUOUS
 62
     7
 10
-170.14506351018281
 20
37.622576194455007
 30
0.0
  0
VERTEX
  5
10F4
  8
DATA
  6
CONTINUOUS
 62
     7
 10
-169.0900635101828
 20
37.622576194455007
 30
0.0
  0
VERTEX
  5
10F5
  8
DATA
  6
CONTINUOUS
 62
     7
 10
-169.0900635101828
 20
38.012576194455022
 30
0.0
  0
VERTEX
  5
10F6
  8
DATA
  6
CONTINUOUS
 62
     7
 10
-170.14506351018281
 20
38.012576194455022
 30
0.0
  0
SEQEND
  5
10F7
  8
DATA
  6
CONTINUOUS
 62
     7
  0
POLYLINE
  5
948
  8
DATA
  6
CONTINUOUS
 62
     7
 66
     1
 10
0.0
 20
0.0
 30
0.0
  0
VERTEX
  5
10F8
  8
DATA
  6
CONTINUOUS
 62
     7
 10
-171.53506351018279
 20
37.622576194455007
 30
0.0
  0
VERTEX
  5
10F9
  8
DATA
  6
CONTINUOUS
 62
     7
 10
-172.5900635101828
 20
37.622576194455007
 30
0.0
  0
VERTEX
  5
10FA
  8
DATA
  6
CONTINUOUS
 62
     7
 10
-172.5900635101828
 20
38.012576194455022
 30
0.0
  0
VERTEX
  5
10FB
  8
DATA
  6
CONTINUOUS
 62
     7
 10
-171.53506351018279
 20
38.012576194455022
 30
0.0
  0
SEQEND
  5
10FC
  8
DATA
  6
CONTINUOUS
 62
     7
  0
ARC
  5
94E
  8
DATA
  6
CONTINUOUS
 62
     7
 10
-171.53506351018279
 20
38.512576194455022
 30
0.0
 40
0.5
 50
270.0
 51
0.0
  0
ARC
  5
94F
  8
DATA
  6
CONTINUOUS
 62
     7
 10
-171.53506351018279
 20
37.122576194455007
 30
0.0
 40
0.5
 50
0.0
 51
90.0
  0
ARC
  5
950
  8
DATA
  6
CONTINUOUS
 62
     7
 10
-170.14506351018281
 20
37.122576194455007
 30
0.0
 40
0.5
 50
90.0
 51
180.0
  0
ARC
  5
951
  8
DATA
  6
CONTINUOUS
 62
     7
 10
-170.14506351018281
 20
38.512576194455022
 30
0.0
 40
0.5
 50
180.0
 51
270.0
  0
CIRCLE
  5
952
  8
DATA
  6
CONTINUOUS
 62
     7
 10
-151.06969366043589
 20
18.01737217889201
 30
0.0
 40
2.7500000000000249
  0
POLYLINE
  5
953
  8
DATA
  6
CONTINUOUS
 62
     7
 66
     1
 10
0.0
 20
0.0
 30
0.0
  0
VERTEX
  5
10FD
  8
DATA
  6
CONTINUOUS
 62
     7
 10
-150.847550376182
 20
17.320782716562299
 30
0.0
  0
VERTEX
  5
10FE
  8
DATA
  6
CONTINUOUS
 62
     7
 10
-150.847550376182
 20
16.265782716562288
 30
0.0
  0
VERTEX
  5
10FF
  8
DATA
  6
CONTINUOUS
 62
     7
 10
-151.23755037618201
 20
16.265782716562288
 30
0.0
  0
VERTEX
  5
1100
  8
DATA
  6
CONTINUOUS
 62
     7
 10
-151.23755037618201
 20
17.320782716562299
 30
0.0
  0
SEQEND
  5
1101
  8
DATA
  6
CONTINUOUS
 62
     7
  0
POLYLINE
  5
959
  8
DATA
  6
CONTINUOUS
 62
     7
 66
     1
 10
0.0
 20
0.0
 30
0.0
  0
VERTEX
  5
1102
  8
DATA
  6
CONTINUOUS
 62
     7
 10
-150.847550376182
 20
18.710782716562289
 30
0.0
  0
VERTEX
  5
1103
  8
DATA
  6
CONTINUOUS
 62
     7
 10
-150.847550376182
 20
19.765782716562288
 30
0.0
  0
VERTEX
  5
1104
  8
DATA
  6
CONTINUOUS
 62
     7
 10
-151.23755037618201
 20
19.765782716562288
 30
0.0
  0
VERTEX
  5
1105
  8
DATA
  6
CONTINUOUS
 62
     7
 10
-151.23755037618201
 20
18.710782716562289
 30
0.0
  0
SEQEND
  5
1106
  8
DATA
  6
CONTINUOUS
 62
     7
  0
POLYLINE
  5
95F
  8
DATA
  6
CONTINUOUS
 62
     7
 66
     1
 10
0.0
 20
0.0
 30
0.0
  0
VERTEX
  5
1107
  8
DATA
  6
CONTINUOUS
 62
     7
 10
-150.347550376182
 20
17.820782716562299
 30
0.0
  0
VERTEX
  5
1108
  8
DATA
  6
CONTINUOUS
 62
     7
 10
-149.29255037618199
 20
17.820782716562299
 30
0.0
  0
VERTEX
  5
1109
  8
DATA
  6
CONTINUOUS
 62
     7
 10
-149.29255037618199
 20
18.210782716562289
 30
0.0
  0
VERTEX
  5
110A
  8
DATA
  6
CONTINUOUS
 62
     7
 10
-150.347550376182
 20
18.210782716562289
 30
0.0
  0
SEQEND
  5
110B
  8
DATA
  6
CONTINUOUS
 62
     7
  0
POLYLINE
  5
965
  8
DATA
  6
CONTINUOUS
 62
     7
 66
     1
 10
0.0
 20
0.0
 30
0.0
  0
VERTEX
  5
110C
  8
DATA
  6
CONTINUOUS
 62
     7
 10
-151.73755037618201
 20
17.820782716562299
 30
0.0
  0
VERTEX
  5
110D
  8
DATA
  6
CONTINUOUS
 62
     7
 10
-152.79255037618199
 20
17.820782716562299
 30
0.0
  0
VERTEX
  5
110E
  8
DATA
  6
CONTINUOUS
 62
     7
 10
-152.79255037618199
 20
18.210782716562289
 30
0.0
  0
VERTEX
  5
110F
  8
DATA
  6
CONTINUOUS
 62
     7
 10
-151.73755037618201
 20
18.210782716562289
 30
0.0
  0
SEQEND
  5
1110
  8
DATA
  6
CONTINUOUS
 62
     7
  0
ARC
  5
96B
  8
DATA
  6
CONTINUOUS
 62
     7
 10
-151.73755037618201
 20
18.710782716562289
 30
0.0
 40
0.5
 50
270.0
 51
0.0
  0
ARC
  5
96C
  8
DATA
  6
CONTINUOUS
 62
     7
 10
-151.73755037618201
 20
17.320782716562299
 30
0.0
 40
0.5
 50
0.0
 51
90.0
  0
ARC
  5
96D
  8
DATA
  6
CONTINUOUS
 62
     7
 10
-150.347550376182
 20
17.320782716562299
 30
0.0
 40
0.5
 50
90.0
 51
180.0
  0
ARC
  5
96E
  8
DATA
  6
CONTINUOUS
 62
     7
 10
-150.347550376182
 20
18.710782716562289
 30
0.0
 40
0.5
 50
180.0
 51
270.0
  0
CIRCLE
  5
96F
  8
DATA
  6
CONTINUOUS
 62
     7
 10
-95.153843606411726
 20
27.98363094354665
 30
0.0
 40
11.0
  0
CIRCLE
  5
970
  8
DATA
  6
CONTINUOUS
 62
     7
 10
-95.153752197453784
 20
27.918475065931698
 30
0.0
 40
8.2499999999999876
  0
CIRCLE
  5
971
  8
DATA
  6
CONTINUOUS
 62
     7
 10
-91.157885407850557
 20
28.20080409602345
 30
0.0
 40
1.175000000000008
  0
CIRCLE
  5
972
  8
DATA
  6
CONTINUOUS
 62
     7
 10
-99.154057097310385
 20
28.183630943546639
 30
0.0
 40
1.1750000000000109
  0
CIRCLE
  5
973
  8
DATA
  6
CONTINUOUS
 62
     7
 10
-95.153894484455421
 20
31.867393401887782
 30
0.0
 40
1.1750000000000109
  0
CIRCLE
  5
974
  8
DATA
  6
CONTINUOUS
 62
     7
 10
-105.0830258512466
 20
37.819165656784747
 30
0.0
 40
2.7500000000000049
  0
POLYLINE
  5
975
  8
DATA
  6
CONTINUOUS
 62
     7
 66
     1
 10
0.0
 20
0.0
 30
0.0
  0
VERTEX
  5
1111
  8
DATA
  6
CONTINUOUS
 62
     7
 10
-104.8608825669927
 20
37.122576194455007
 30
0.0
  0
VERTEX
  5
1112
  8
DATA
  6
CONTINUOUS
 62
     7
 10
-104.8608825669927
 20
36.067576194455029
 30
0.0
  0
VERTEX
  5
1113
  8
DATA
  6
CONTINUOUS
 62
     7
 10
-105.2508825669926
 20
36.067576194455029
 30
0.0
  0
VERTEX
  5
1114
  8
DATA
  6
CONTINUOUS
 62
     7
 10
-105.2508825669926
 20
37.122576194455007
 30
0.0
  0
SEQEND
  5
1115
  8
DATA
  6
CONTINUOUS
 62
     7
  0
POLYLINE
  5
97B
  8
DATA
  6
CONTINUOUS
 62
     7
 66
     1
 10
0.0
 20
0.0
 30
0.0
  0
VERTEX
  5
1116
  8
DATA
  6
CONTINUOUS
 62
     7
 10
-104.8608825669927
 20
38.512576194455022
 30
0.0
  0
VERTEX
  5
1117
  8
DATA
  6
CONTINUOUS
 62
     7
 10
-104.8608825669927
 20
39.567576194455029
 30
0.0
  0
VERTEX
  5
1118
  8
DATA
  6
CONTINUOUS
 62
     7
 10
-105.2508825669926
 20
39.567576194455029
 30
0.0
  0
VERTEX
  5
1119
  8
DATA
  6
CONTINUOUS
 62
     7
 10
-105.2508825669926
 20
38.512576194455022
 30
0.0
  0
SEQEND
  5
111A
  8
DATA
  6
CONTINUOUS
 62
     7
  0
POLYLINE
  5
981
  8
DATA
  6
CONTINUOUS
 62
     7
 66
     1
 10
0.0
 20
0.0
 30
0.0
  0
VERTEX
  5
111B
  8
DATA
  6
CONTINUOUS
 62
     7
 10
-104.3608825669927
 20
37.622576194455007
 30
0.0
  0
VERTEX
  5
111C
  8
DATA
  6
CONTINUOUS
 62
     7
 10
-103.30588256699259
 20
37.622576194455007
 30
0.0
  0
VERTEX
  5
111D
  8
DATA
  6
CONTINUOUS
 62
     7
 10
-103.30588256699259
 20
38.012576194455022
 30
0.0
  0
VERTEX
  5
111E
  8
DATA
  6
CONTINUOUS
 62
     7
 10
-104.3608825669927
 20
38.012576194455022
 30
0.0
  0
SEQEND
  5
111F
  8
DATA
  6
CONTINUOUS
 62
     7
  0
POLYLINE
  5
987
  8
DATA
  6
CONTINUOUS
 62
     7
 66
     1
 10
0.0
 20
0.0
 30
0.0
  0
VERTEX
  5
1120
  8
DATA
  6
CONTINUOUS
 62
     7
 10
-105.7508825669926
 20
37.622576194455007
 30
0.0
  0
VERTEX
  5
1121
  8
DATA
  6
CONTINUOUS
 62
     7
 10
-106.80588256699259
 20
37.622576194455007
 30
0.0
  0
VERTEX
  5
1122
  8
DATA
  6
CONTINUOUS
 62
     7
 10
-106.80588256699259
 20
38.012576194455022
 30
0.0
  0
VERTEX
  5
1123
  8
DATA
  6
CONTINUOUS
 62
     7
 10
-105.7508825669926
 20
38.012576194455022
 30
0.0
  0
SEQEND
  5
1124
  8
DATA
  6
CONTINUOUS
 62
     7
  0
ARC
  5
98D
  8
DATA
  6
CONTINUOUS
 62
     7
 10
-105.7508825669926
 20
38.512576194455022
 30
0.0
 40
0.5
 50
270.0
 51
0.0
  0
ARC
  5
98E
  8
DATA
  6
CONTINUOUS
 62
     7
 10
-105.7508825669926
 20
37.122576194455007
 30
0.0
 40
0.5
 50
0.0
 51
90.0
  0
ARC
  5
98F
  8
DATA
  6
CONTINUOUS
 62
     7
 10
-104.3608825669927
 20
37.122576194455007
 30
0.0
 40
0.5
 50
90.0
 51
180.0
  0
ARC
  5
990
  8
DATA
  6
CONTINUOUS
 62
     7
 10
-104.3608825669927
 20
38.512576194455022
 30
0.0
 40
0.5
 50
180.0
 51
270.0
  0
CIRCLE
  5
991
  8
DATA
  6
CONTINUOUS
 62
     7
 10
-85.285512717245794
 20
18.01737217889201
 30
0.0
 40
2.7500000000000249
  0
POLYLINE
  5
992
  8
DATA
  6
CONTINUOUS
 62
     7
 66
     1
 10
0.0
 20
0.0
 30
0.0
  0
VERTEX
  5
1125
  8
DATA
  6
CONTINUOUS
 62
     7
 10
-85.063369432991877
 20
17.320782716562299
 30
0.0
  0
VERTEX
  5
1126
  8
DATA
  6
CONTINUOUS
 62
     7
 10
-85.063369432991877
 20
16.265782716562288
 30
0.0
  0
VERTEX
  5
1127
  8
DATA
  6
CONTINUOUS
 62
     7
 10
-85.453369432991863
 20
16.265782716562288
 30
0.0
  0
VERTEX
  5
1128
  8
DATA
  6
CONTINUOUS
 62
     7
 10
-85.453369432991863
 20
17.320782716562299
 30
0.0
  0
SEQEND
  5
1129
  8
DATA
  6
CONTINUOUS
 62
     7
  0
POLYLINE
  5
998
  8
DATA
  6
CONTINUOUS
 62
     7
 66
     1
 10
0.0
 20
0.0
 30
0.0
  0
VERTEX
  5
112A
  8
DATA
  6
CONTINUOUS
 62
     7
 10
-85.063369432991877
 20
18.710782716562289
 30
0.0
  0
VERTEX
  5
112B
  8
DATA
  6
CONTINUOUS
 62
     7
 10
-85.063369432991877
 20
19.765782716562288
 30
0.0
  0
VERTEX
  5
112C
  8
DATA
  6
CONTINUOUS
 62
     7
 10
-85.453369432991863
 20
19.765782716562288
 30
0.0
  0
VERTEX
  5
112D
  8
DATA
  6
CONTINUOUS
 62
     7
 10
-85.453369432991863
 20
18.710782716562289
 30
0.0
  0
SEQEND
  5
112E
  8
DATA
  6
CONTINUOUS
 62
     7
  0
POLYLINE
  5
99E
  8
DATA
  6
CONTINUOUS
 62
     7
 66
     1
 10
0.0
 20
0.0
 30
0.0
  0
VERTEX
  5
112F
  8
DATA
  6
CONTINUOUS
 62
     7
 10
-84.563369432991863
 20
17.820782716562299
 30
0.0
  0
VERTEX
  5
1130
  8
DATA
  6
CONTINUOUS
 62
     7
 10
-83.508369432991856
 20
17.820782716562299
 30
0.0
  0
VERTEX
  5
1131
  8
DATA
  6
CONTINUOUS
 62
     7
 10
-83.508369432991856
 20
18.210782716562289
 30
0.0
  0
VERTEX
  5
1132
  8
DATA
  6
CONTINUOUS
 62
     7
 10
-84.563369432991863
 20
18.210782716562289
 30
0.0
  0
SEQEND
  5
1133
  8
DATA
  6
CONTINUOUS
 62
     7
  0
POLYLINE
  5
9A4
  8
DATA
  6
CONTINUOUS
 62
     7
 66
     1
 10
0.0
 20
0.0
 30
0.0
  0
VERTEX
  5
1134
  8
DATA
  6
CONTINUOUS
 62
     7
 10
-85.953369432991849
 20
17.820782716562299
 30
0.0
  0
VERTEX
  5
1135
  8
DATA
  6
CONTINUOUS
 62
     7
 10
-87.008369432991856
 20
17.820782716562299
 30
0.0
  0
VERTEX
  5
1136
  8
DATA
  6
CONTINUOUS
 62
     7
 10
-87.008369432991856
 20
18.210782716562289
 30
0.0
  0
VERTEX
  5
1137
  8
DATA
  6
CONTINUOUS
 62
     7
 10
-85.953369432991849
 20
18.210782716562289
 30
0.0
  0
SEQEND
  5
1138
  8
DATA
  6
CONTINUOUS
 62
     7
  0
ARC
  5
9AA
  8
DATA
  6
CONTINUOUS
 62
     7
 10
-85.953369432991849
 20
18.710782716562289
 30
0.0
 40
0.5
 50
270.0
 51
0.0
  0
ARC
  5
9AB
  8
DATA
  6
CONTINUOUS
 62
     7
 10
-85.953369432991849
 20
17.320782716562299
 30
0.0
 40
0.5
 50
0.0
 51
90.0
  0
ARC
  5
9AC
  8
DATA
  6
CONTINUOUS
 62
     7
 10
-84.563369432991863
 20
17.320782716562299
 30
0.0
 40
0.5
 50
90.0
 51
180.0
  0
ARC
  5
9AD
  8
DATA
  6
CONTINUOUS
 62
     7
 10
-84.563369432991863
 20
18.710782716562289
 30
0.0
 40
0.5
 50
180.0
 51
270.0
  0
TEXT
  5
9AE
  8
DATA
 62
     7
 10
-89.415852473827456
 20
12.130057194595301
 30
0.0
 40
1.7645779079861099
  1
 CHANNEL 2
 50
180.0
 41
0.8
 11
-89.415852473827456
 21
10.36547928660918
 31
0.0
 73
     3
  0
TEXT
  5
9AF
  8
DATA
 62
     7
 10
-155.20419963866249
 20
12.06077587071886
 30
0.0
 40
1.7645779079861099
  1
 CHANNEL 1
 50
180.0
 41
0.8
 11
-155.20419963866249
 21
10.29619796273275
 31
0.0
 73
     3
  0
LINE
  5
9B0
  8
DATA
  6
CONTINUOUS
 62
     7
 10
-175.9332533948805
 20
41.442347888991563
 30
0.0
 11
-175.9332533948805
 21
10.442347888991559
 31
0.0
  0
LINE
  5
9B1
  8
DATA
  6
CONTINUOUS
 62
     7
 10
-173.9332533948805
 20
8.4423478889915629
 30
0.0
 11
-82.002360763670424
 21
8.4423478889915629
 31
0.0
  0
LINE
  5
9B2
  8
DATA
  6
CONTINUOUS
 62
     7
 10
-80.002360763670424
 20
10.442347888991559
 30
0.0
 11
-80.002360763670424
 21
41.442347888991563
 31
0.0
  0
LINE
  5
9B3
  8
DATA
  6
CONTINUOUS
 62
     7
 10
-82.002360763670424
 20
43.442347888991563
 30
0.0
 11
-173.9332533948805
 21
43.442347888991563
 31
0.0
  0
ARC
  5
9B4
  8
DATA
  6
CONTINUOUS
 62
     7
 10
-82.002360763670424
 20
10.442347888991559
 30
0.0
 40
2.0
 50
270.0
 51
0.0
  0
ARC
  5
9B5
  8
DATA
  6
CONTINUOUS
 62
     7
 10
-173.9332533948805
 20
10.442347888991559
 30
0.0
 40
2.0
 50
180.0
 51
270.0
  0
ARC
  5
9B6
  8
DATA
  6
CONTINUOUS
 62
     7
 10
-82.002360763670424
 20
41.442347888991563
 30
0.0
 40
2.0
 50
0.0
 51
90.0
  0
ARC
  5
9B7
  8
DATA
  6
CONTINUOUS
 62
     7
 10
-173.9332533948805
 20
41.442347888991563
 30
0.0
 40
2.0
 50
90.0
 51
180.0
  0
LINE
  5
9B8
  8
DATA
  6
CONTINUOUS
 62
     7
 10
-75.432360763670403
 20
8.4423478889915629
 30
0.0
 11
-59.432360763670459
 21
8.4423478889915629
 31
0.0
  0
LINE
  5
9B9
  8
DATA
  6
CONTINUOUS
 62
     7
 10
-75.432360763670403
 20
43.442347888991563
 30
0.0
 11
-59.432360763670459
 21
43.442347888991563
 31
0.0
  0
LINE
  5
9BA
  8
DATA
  6
CONTINUOUS
 62
     7
 10
-52.862360763670473
 20
43.442347888991563
 30
0.0
 11
-23.862360763670459
 21
43.442347888991563
 31
0.0
  0
LINE
  5
9BB
  8
DATA
  6
CONTINUOUS
 62
     7
 10
-52.862360763670473
 20
8.4423478889915629
 30
0.0
 11
-23.862360763670459
 21
8.4423478889915629
 31
0.0
  0
LINE
  5
9BC
  8
DATA
  6
CONTINUOUS
 62
     7
 10
-77.432360763670403
 20
41.442347888991563
 30
0.0
 11
-77.432360763670403
 21
10.442347888991559
 31
0.0
  0
LINE
  5
9BD
  8
DATA
  6
CONTINUOUS
 62
     7
 10
-57.432360763670466
 20
41.442347888991563
 30
0.0
 11
-57.432360763670466
 21
10.442347888991559
 31
0.0
  0
LINE
  5
9BE
  8
DATA
  6
CONTINUOUS
 62
     7
 10
-54.862360763670473
 20
41.442347888991563
 30
0.0
 11
-54.862360763670473
 21
10.442347888991559
 31
0.0
  0
LINE
  5
9BF
  8
DATA
  6
CONTINUOUS
 62
     7
 10
-21.862360763670459
 20
41.442347888991563
 30
0.0
 11
-21.862360763670459
 21
10.442347888991559
 31
0.0
  0
ARC
  5
9C0
  8
DATA
  6
CONTINUOUS
 62
     7
 10
-23.862360763670459
 20
10.442347888991559
 30
0.0
 40
2.0
 50
270.0
 51
0.0
  0
ARC
  5
9C1
  8
DATA
  6
CONTINUOUS
 62
     7
 10
-52.862360763670473
 20
10.442347888991559
 30
0.0
 40
2.0
 50
180.0
 51
270.0
  0
ARC
  5
9C2
  8
DATA
  6
CONTINUOUS
 62
     7
 10
-23.862360763670459
 20
41.442347888991563
 30
0.0
 40
2.0
 50
0.0
 51
90.0
  0
ARC
  5
9C3
  8
DATA
  6
CONTINUOUS
 62
     7
 10
-52.862360763670473
 20
41.442347888991563
 30
0.0
 40
2.0
 50
90.0
 51
180.0
  0
ARC
  5
9C4
  8
DATA
  6
CONTINUOUS
 62
     7
 10
-59.432360763670459
 20
41.442347888991563
 30
0.0
 40
2.0
 50
0.0
 51
90.0
  0
ARC
  5
9C5
  8
DATA
  6
CONTINUOUS
 62
     7
 10
-75.432360763670403
 20
41.442347888991563
 30
0.0
 40
2.0
 50
90.0
 51
180.0
  0
ARC
  5
9C6
  8
DATA
  6
CONTINUOUS
 62
     7
 10
-59.432360763670459
 20
10.442347888991559
 30
0.0
 40
2.0
 50
270.0
 51
0.0
  0
ARC
  5
9C7
  8
DATA
  6
CONTINUOUS
 62
     7
 10
-75.432360763670403
 20
10.442347888991559
 30
0.0
 40
2.0
 50
180.0
 51
270.0
  0
POLYLINE
  5
9C8
  8
DATA
  6
CONTINUOUS
 62
     7
 66
     1
 10
0.0
 20
0.0
 30
0.0
 70
   129
  0
VERTEX
  5
1139
  8
DATA
  6
CONTINUOUS
 62
     7
 10
-44.487110092773321
 20
32.945594405659101
 30
0.0
 42
-0.4142135623730951
  0
VERTEX
  5
113A
  8
DATA
  6
CONTINUOUS
 62
     7
 10
-43.987110092773321
 20
33.445594405659101
 30
0.0
 42
-0.414213562373091
  0
VERTEX
  5
113B
  8
DATA
  6
CONTINUOUS
 62
     7
 10
-43.487110092773321
 20
32.945594405659101
 30
0.0
 42
-0.4142135623730951
  0
VERTEX
  5
113C
  8
DATA
  6
CONTINUOUS
 62
     7
 10
-43.987110092773321
 20
32.445594405659101
 30
0.0
 42
-0.4142135623730992
  0
VERTEX
  5
113D
  8
DATA
  6
CONTINUOUS
 62
     7
 10
-44.487110092773321
 20
32.945594405659101
 30
0.0
  0
SEQEND
  5
113E
  8
DATA
  6
CONTINUOUS
 62
     7
  0
LINE
  5
9CF
  8
DATA
  6
CONTINUOUS
 62
     7
 10
-32.04711009277338
 20
29.92553317111707
 30
0.0
 11
-44.947110092773357
 21
29.92553317111707
 31
0.0
  0
LINE
  5
9D0
  8
DATA
  6
CONTINUOUS
 62
     7
 10
-32.423680092773402
 20
38.265533171117212
 30
0.0
 11
-44.570550092773317
 21
38.265533171117212
 31
0.0
  0
POLYLINE
  5
9D1
  8
DATA
  6
CONTINUOUS
 62
     7
 66
     1
 10
0.0
 20
0.0
 30
0.0
 70
   129
  0
VERTEX
  5
113F
  8
DATA
  6
CONTINUOUS
 62
     7
 10
-43.107110092773333
 20
35.785594405659218
 30
0.0
 42
-0.4142135623731117
  0
VERTEX
  5
1140
  8
DATA
  6
CONTINUOUS
 62
     7
 10
-42.607110092773318
 20
36.285594405659261
 30
0.0
 42
-0.4142135623730784
  0
VERTEX
  5
1141
  8
DATA
  6
CONTINUOUS
 62
     7
 10
-42.107110092773318
 20
35.785594405659218
 30
0.0
 42
-0.4142135623731117
  0
VERTEX
  5
1142
  8
DATA
  6
CONTINUOUS
 62
     7
 10
-42.607110092773318
 20
35.285594405659189
 30
0.0
 42
-0.4142135623730784
  0
VERTEX
  5
1143
  8
DATA
  6
CONTINUOUS
 62
     7
 10
-43.107110092773333
 20
35.785594405659218
 30
0.0
  0
SEQEND
  5
1144
  8
DATA
  6
CONTINUOUS
 62
     7
  0
POLYLINE
  5
9D8
  8
DATA
  6
CONTINUOUS
 62
     7
 66
     1
 10
0.0
 20
0.0
 30
0.0
 70
   129
  0
VERTEX
  5
1145
  8
DATA
  6
CONTINUOUS
 62
     7
 10
-40.367110092773324
 20
35.785594405659218
 30
0.0
 42
-0.4142135623731117
  0
VERTEX
  5
1146
  8
DATA
  6
CONTINUOUS
 62
     7
 10
-39.867110092773324
 20
36.285594405659261
 30
0.0
 42
-0.4142135623730784
  0
VERTEX
  5
1147
  8
DATA
  6
CONTINUOUS
 62
     7
 10
-39.367110092773309
 20
35.785594405659218
 30
0.0
 42
-0.4142135623731117
  0
VERTEX
  5
1148
  8
DATA
  6
CONTINUOUS
 62
     7
 10
-39.867110092773324
 20
35.285594405659189
 30
0.0
 42
-0.4142135623730784
  0
VERTEX
  5
1149
  8
DATA
  6
CONTINUOUS
 62
     7
 10
-40.367110092773324
 20
35.785594405659218
 30
0.0
  0
SEQEND
  5
114A
  8
DATA
  6
CONTINUOUS
 62
     7
  0
POLYLINE
  5
9DF
  8
DATA
  6
CONTINUOUS
 62
     7
 66
     1
 10
0.0
 20
0.0
 30
0.0
 70
   129
  0
VERTEX
  5
114B
  8
DATA
  6
CONTINUOUS
 62
     7
 10
-34.887110092773298
 20
35.785594405659218
 30
0.0
 42
-0.4142135623731117
  0
VERTEX
  5
114C
  8
DATA
  6
CONTINUOUS
 62
     7
 10
-34.387110092773298
 20
36.285594405659261
 30
0.0
 42
-0.4142135623730784
  0
VERTEX
  5
114D
  8
DATA
  6
CONTINUOUS
 62
     7
 10
-33.887110092773298
 20
35.785594405659218
 30
0.0
 42
-0.4142135623731117
  0
VERTEX
  5
114E
  8
DATA
  6
CONTINUOUS
 62
     7
 10
-34.387110092773298
 20
35.285594405659189
 30
0.0
 42
-0.4142135623730784
  0
VERTEX
  5
114F
  8
DATA
  6
CONTINUOUS
 62
     7
 10
-34.887110092773298
 20
35.785594405659218
 30
0.0
  0
SEQEND
  5
1150
  8
DATA
  6
CONTINUOUS
 62
     7
  0
POLYLINE
  5
9E6
  8
DATA
  6
CONTINUOUS
 62
     7
 66
     1
 10
0.0
 20
0.0
 30
0.0
 70
   129
  0
VERTEX
  5
1151
  8
DATA
  6
CONTINUOUS
 62
     7
 10
-36.257110092773303
 20
32.945594405659101
 30
0.0
 42
-0.4142135623730951
  0
VERTEX
  5
1152
  8
DATA
  6
CONTINUOUS
 62
     7
 10
-35.757110092773303
 20
33.445594405659101
 30
0.0
 42
-0.414213562373091
  0
VERTEX
  5
1153
  8
DATA
  6
CONTINUOUS
 62
     7
 10
-35.257110092773303
 20
32.945594405659101
 30
0.0
 42
-0.4142135623730951
  0
VERTEX
  5
1154
  8
DATA
  6
CONTINUOUS
 62
     7
 10
-35.757110092773303
 20
32.445594405659101
 30
0.0
 42
-0.4142135623730992
  0
VERTEX
  5
1155
  8
DATA
  6
CONTINUOUS
 62
     7
 10
-36.257110092773303
 20
32.945594405659101
 30
0.0
  0
SEQEND
  5
1156
  8
DATA
  6
CONTINUOUS
 62
     7
  0
POLYLINE
  5
9ED
  8
DATA
  6
CONTINUOUS
 62
     7
 66
     1
 10
0.0
 20
0.0
 30
0.0
 70
   129
  0
VERTEX
  5
1157
  8
DATA
  6
CONTINUOUS
 62
     7
 10
-33.507110092773303
 20
32.945594405659101
 30
0.0
 42
-0.4142135623730951
  0
VERTEX
  5
1158
  8
DATA
  6
CONTINUOUS
 62
     7
 10
-33.00711009277331
 20
33.445594405659101
 30
0.0
 42
-0.414213562373091
  0
VERTEX
  5
1159
  8
DATA
  6
CONTINUOUS
 62
     7
 10
-32.507110092773303
 20
32.945594405659101
 30
0.0
 42
-0.4142135623730951
  0
VERTEX
  5
115A
  8
DATA
  6
CONTINUOUS
 62
     7
 10
-33.00711009277331
 20
32.445594405659101
 30
0.0
 42
-0.4142135623730992
  0
VERTEX
  5
115B
  8
DATA
  6
CONTINUOUS
 62
     7
 10
-33.507110092773303
 20
32.945594405659101
 30
0.0
  0
SEQEND
  5
115C
  8
DATA
  6
CONTINUOUS
 62
     7
  0
POLYLINE
  5
9F4
  8
DATA
  6
CONTINUOUS
 62
     7
 66
     1
 10
0.0
 20
0.0
 30
0.0
 70
   129
  0
VERTEX
  5
115D
  8
DATA
  6
CONTINUOUS
 62
     7
 10
-41.737110092773321
 20
32.945594405659101
 30
0.0
 42
-0.4142135623730951
  0
VERTEX
  5
115E
  8
DATA
  6
CONTINUOUS
 62
     7
 10
-41.237110092773307
 20
33.445594405659101
 30
0.0
 42
-0.414213562373091
  0
VERTEX
  5
115F
  8
DATA
  6
CONTINUOUS
 62
     7
 10
-40.737110092773321
 20
32.945594405659101
 30
0.0
 42
-0.4142135623730951
  0
VERTEX
  5
1160
  8
DATA
  6
CONTINUOUS
 62
     7
 10
-41.237110092773307
 20
32.445594405659101
 30
0.0
 42
-0.4142135623730992
  0
VERTEX
  5
1161
  8
DATA
  6
CONTINUOUS
 62
     7
 10
-41.737110092773321
 20
32.945594405659101
 30
0.0
  0
SEQEND
  5
1162
  8
DATA
  6
CONTINUOUS
 62
     7
  0
POLYLINE
  5
9FB
  8
DATA
  6
CONTINUOUS
 62
     7
 66
     1
 10
0.0
 20
0.0
 30
0.0
 70
   129
  0
VERTEX
  5
1163
  8
DATA
  6
CONTINUOUS
 62
     7
 10
-37.627110092773307
 20
35.785594405659218
 30
0.0
 42
-0.4142135623731117
  0
VERTEX
  5
1164
  8
DATA
  6
CONTINUOUS
 62
     7
 10
-37.127110092773307
 20
36.285594405659261
 30
0.0
 42
-0.4142135623730784
  0
VERTEX
  5
1165
  8
DATA
  6
CONTINUOUS
 62
     7
 10
-36.627110092773307
 20
35.785594405659218
 30
0.0
 42
-0.4142135623731117
  0
VERTEX
  5
1166
  8
DATA
  6
CONTINUOUS
 62
     7
 10
-37.127110092773307
 20
35.285594405659189
 30
0.0
 42
-0.4142135623730784
  0
VERTEX
  5
1167
  8
DATA
  6
CONTINUOUS
 62
     7
 10
-37.627110092773307
 20
35.785594405659218
 30
0.0
  0
SEQEND
  5
1168
  8
DATA
  6
CONTINUOUS
 62
     7
  0
POLYLINE
  5
A02
  8
DATA
  6
CONTINUOUS
 62
     7
 66
     1
 10
0.0
 20
0.0
 30
0.0
 70
   129
  0
VERTEX
  5
1169
  8
DATA
  6
CONTINUOUS
 62
     7
 10
-38.997110092773312
 20
32.945594405659101
 30
0.0
 42
-0.4142135623730951
  0
VERTEX
  5
116A
  8
DATA
  6
CONTINUOUS
 62
     7
 10
-38.497110092773312
 20
33.445594405659101
 30
0.0
 42
-0.414213562373091
  0
VERTEX
  5
116B
  8
DATA
  6
CONTINUOUS
 62
     7
 10
-37.997110092773312
 20
32.945594405659101
 30
0.0
 42
-0.4142135623730951
  0
VERTEX
  5
116C
  8
DATA
  6
CONTINUOUS
 62
     7
 10
-38.497110092773312
 20
32.445594405659101
 30
0.0
 42
-0.4142135623730992
  0
VERTEX
  5
116D
  8
DATA
  6
CONTINUOUS
 62
     7
 10
-38.997110092773312
 20
32.945594405659101
 30
0.0
  0
SEQEND
  5
116E
  8
DATA
  6
CONTINUOUS
 62
     7
  0
ARC
  5
A09
  8
DATA
  6
CONTINUOUS
 62
     7
 10
-32.04711009277338
 20
31.925533171117131
 30
0.0
 40
2.000000000000056
 50
270.0
 51
0.0
  0
LINE
  5
A0A
  8
DATA
  6
CONTINUOUS
 62
     7
 10
-30.04711009277338
 20
31.925533171117131
 30
0.0
 11
-30.94646009277329
 21
37.026003171117218
 31
0.0
  0
ARC
  5
A0B
  8
DATA
  6
CONTINUOUS
 62
     7
 10
-32.423680092773402
 20
36.76553317111722
 30
0.0
 40
1.499998001665348
 50
9.9999255496014055
 51
90.0
  0
ARC
  5
A0C
  8
DATA
  6
CONTINUOUS
 62
     7
 10
-44.947110092773357
 20
31.925533171117131
 30
0.0
 40
2.0
 50
180.0
 51
270.0
  0
LINE
  5
A0D
  8
DATA
  6
CONTINUOUS
 62
     7
 10
-46.947110092773357
 20
31.925533171117131
 30
0.0
 11
-46.047760092773323
 21
37.026003171117218
 31
0.0
  0
ARC
  5
A0E
  8
DATA
  6
CONTINUOUS
 62
     7
 10
-44.570550092773317
 20
36.76553317111722
 30
0.0
 40
1.499999999999992
 50
90.0
 51
170.0000744503979
  0
POLYLINE
  5
A0F
  8
DATA
  6
CONTINUOUS
 62
     7
 66
     1
 10
0.0
 20
0.0
 30
0.0
 70
     1
  0
VERTEX
  5
116F
  8
DATA
  6
CONTINUOUS
 62
     7
 10
-27.239877180647849
 20
31.943690232194331
 30
0.0
  0
VERTEX
  5
1170
  8
DATA
  6
CONTINUOUS
 62
     7
 10
-24.5240934036479
 20
32.082398404149266
 30
0.0
  0
VERTEX
  5
1171
  8
DATA
  6
CONTINUOUS
 62
     7
 10
-23.286326315773469
 20
34.50369023219428
 30
0.0
  0
VERTEX
  5
1172
  8
DATA
  6
CONTINUOUS
 62
     7
 10
-24.76434300489888
 20
36.78627388828442
 30
0.0
  0
VERTEX
  5
1173
  8
DATA
  6
CONTINUOUS
 62
     7
 10
-27.480126781898718
 20
36.647565716329488
 30
0.0
  0
VERTEX
  5
1174
  8
DATA
  6
CONTINUOUS
 62
     7
 10
-28.71789386977326
 20
34.226273888284418
 30
0.0
  0
SEQEND
  5
1175
  8
DATA
  6
CONTINUOUS
 62
     7
  0
CIRCLE
  5
A17
  8
DATA
  6
CONTINUOUS
 62
     7
 10
-26.002110092773311
 20
34.364982060239363
 30
0.0
 40
1.149999999999977
  0
CIRCLE
  5
A18
  8
DATA
  6
CONTINUOUS
 62
     7
 10
-26.002110092773311
 20
34.364982060239363
 30
0.0
 40
1.759905868717929
  0
POLYLINE
  5
A19
  8
DATA
  6
CONTINUOUS
 62
     7
 66
     1
 10
0.0
 20
0.0
 30
0.0
 70
     1
  0
VERTEX
  5
1176
  8
DATA
  6
CONTINUOUS
 62
     7
 10
-52.229877180647861
 20
31.943690232194331
 30
0.0
  0
VERTEX
  5
1177
  8
DATA
  6
CONTINUOUS
 62
     7
 10
-49.514093403647912
 20
32.082398404149266
 30
0.0
  0
VERTEX
  5
1178
  8
DATA
  6
CONTINUOUS
 62
     7
 10
-48.276326315773467
 20
34.50369023219428
 30
0.0
  0
VERTEX
  5
1179
  8
DATA
  6
CONTINUOUS
 62
     7
 10
-49.754343004898892
 20
36.78627388828442
 30
0.0
  0
VERTEX
  5
117A
  8
DATA
  6
CONTINUOUS
 62
     7
 10
-52.47012678189872
 20
36.647565716329488
 30
0.0
  0
VERTEX
  5
117B
  8
DATA
  6
CONTINUOUS
 62
     7
 10
-53.707893869773272
 20
34.226273888284418
 30
0.0
  0
SEQEND
  5
117C
  8
DATA
  6
CONTINUOUS
 62
     7
  0
CIRCLE
  5
A21
  8
DATA
  6
CONTINUOUS
 62
     7
 10
-50.992110092773331
 20
34.364982060239363
 30
0.0
 40
1.149999999999977
  0
CIRCLE
  5
A22
  8
DATA
  6
CONTINUOUS
 62
     7
 10
-50.992110092773331
 20
34.364982060239363
 30
0.0
 40
1.759905868717929
  0
LINE
  5
A23
  8
DATA
  6
CONTINUOUS
 62
     7
 10
-31.07961009277329
 20
29.3000331711171
 30
0.0
 11
-45.91461009277333
 21
29.3000331711171
 31
0.0
  0
LINE
  5
A24
  8
DATA
  6
CONTINUOUS
 62
     7
 10
-31.51266559277332
 20
38.891033171117257
 30
0.0
 11
-45.481566092773342
 21
38.891033171117257
 31
0.0
  0
ARC
  5
A25
  8
DATA
  6
CONTINUOUS
 62
     7
 10
-31.07961009277329
 20
31.600033171117101
 30
0.0
 40
2.3000000000000109
 50
270.0
 51
0.0
  0
LINE
  5
A26
  8
DATA
  6
CONTINUOUS
 62
     7
 10
-28.779610092773328
 20
31.600033171117101
 30
0.0
 11
-29.813862592773319
 21
37.46557367111722
 31
0.0
  0
ARC
  5
A27
  8
DATA
  6
CONTINUOUS
 62
     7
 10
-31.51266559277332
 20
37.166033171117242
 30
0.0
 40
1.7249977019151019
 50
9.9999255496010182
 51
90.0
  0
ARC
  5
A28
  8
DATA
  6
CONTINUOUS
 62
     7
 10
-45.91461009277333
 20
31.600033171117101
 30
0.0
 40
2.2999999999999541
 50
180.0
 51
270.0
  0
LINE
  5
A29
  8
DATA
  6
CONTINUOUS
 62
     7
 10
-48.214610092773277
 20
31.600033171117101
 30
0.0
 11
-47.180357592773298
 21
37.46557367111722
 31
0.0
  0
ARC
  5
A2A
  8
DATA
  6
CONTINUOUS
 62
     7
 10
-45.481566092773342
 20
37.166033171117242
 30
0.0
 40
1.725000000000015
 50
90.0
 51
170.0000744503993
  0
TEXT
  5
A2B
  8
DATA
 62
     7
 10
-37.334443259868742
 20
11.424267815986459
 30
0.0
 40
1.7314453125
  1
PC
 50
180.0
 41
0.8
 11
-37.334443259868742
 21
9.692822503486461
 31
0.0
 73
     3
  0
POLYLINE
  5
A2C
  8
DATA
  6
CONTINUOUS
 62
     7
 66
     1
 10
0.0
 20
0.0
 30
0.0
 70
     1
  0
VERTEX
  5
117D
  8
DATA
  6
CONTINUOUS
 62
     7
 10
-75.6554143961975
 20
40.358804537483358
 30
0.0
  0
VERTEX
  5
117E
  8
DATA
  6
CONTINUOUS
 62
     7
 10
-59.755414396197523
 20
40.358804537483358
 30
0.0
  0
VERTEX
  5
117F
  8
DATA
  6
CONTINUOUS
 62
     7
 10
-59.755414396197523
 20
28.358804537483358
 30
0.0
  0
VERTEX
  5
1180
  8
DATA
  6
CONTINUOUS
 62
     7
 10
-75.6554143961975
 20
28.358804537483358
 30
0.0
  0
SEQEND
  5
1181
  8
DATA
  6
CONTINUOUS
 62
     7
  0
LINE
  5
A32
  8
DATA
  6
CONTINUOUS
 62
     7
 10
-61.655414396197529
 20
30.258804537483361
 30
0.0
 11
-73.755414396197452
 21
30.258804537483361
 31
0.0
  0
LINE
  5
A33
  8
DATA
  6
CONTINUOUS
 62
     7
 10
-61.655414396197529
 20
37.458804537483402
 30
0.0
 11
-63.9054143961975
 21
37.458804537483402
 31
0.0
  0
LINE
  5
A34
  8
DATA
  6
CONTINUOUS
 62
     7
 10
-71.505414396197523
 20
37.458804537483402
 30
0.0
 11
-73.755414396197452
 21
37.458804537483402
 31
0.0
  0
LINE
  5
A35
  8
DATA
  6
CONTINUOUS
 62
     7
 10
-73.755414396197452
 20
37.458804537483402
 30
0.0
 11
-73.755414396197452
 21
30.258804537483361
 31
0.0
  0
LINE
  5
A36
  8
DATA
  6
CONTINUOUS
 62
     7
 10
-61.655414396197529
 20
30.258804537483361
 30
0.0
 11
-61.655414396197529
 21
37.458804537483402
 31
0.0
  0
LINE
  5
A37
  8
DATA
  6
CONTINUOUS
 62
     7
 10
-63.9054143961975
 20
37.458804537483402
 30
0.0
 11
-63.9054143961975
 21
40.358804537483358
 31
0.0
  0
LINE
  5
A38
  8
DATA
  6
CONTINUOUS
 62
     7
 10
-71.505414396197523
 20
37.458804537483402
 30
0.0
 11
-71.505414396197523
 21
40.358804537483358
 31
0.0
  0
TEXT
  5
A39
  8
DATA
 62
     7
 10
-61.878810782074019
 20
11.51992916476574
 30
0.0
 40
1.7314453125
  1
   ZONE
 50
180.0
 41
0.8
 11
-61.878810782074019
 21
9.7884838522657471
 31
0.0
 73
     3
  0
TEXT
  5
A3A
  8
DATA
 62
     7
 10
-61.878810782074019
 20
13.76992916476574
 30
0.0
 40
1.7314453125
  1
CONTROLLER
 50
180.0
 41
0.8
 11
-61.878810782074019
 21
12.03848385226574
 31
0.0
 73
     3
  0
LINE
  5
A3B
  8
DATA
  6
CONTINUOUS
 62
     7
 10
-28.955977013492681
 20
-128.34881230583389
 30
0.0
 11
-23.52440945949289
 21
-128.34881230583389
 31
0.0
  0
LINE
  5
A3C
  8
DATA
  6
CONTINUOUS
 62
     7
 10
-48.514409459492853
 20
-128.34881230583389
 30
0.0
 11
-53.945977013492573
 21
-128.34881230583389
 31
0.0
  0
LINE
  5
A3D
  8
DATA
  6
CONTINUOUS
 62
     7
 10
-29.862693236492792
 20
-128.34881230583389
 30
0.0
 11
-47.60769323649275
 21
-128.34881230583389
 31
0.0
  0
LINE
  5
A3E
  8
DATA
  6
CONTINUOUS
 62
     7
 10
-53.945977013492573
 20
-128.34881230583389
 30
0.0
 11
-53.945977013492573
 21
-130.34881230583389
 31
0.0
  0
LINE
  5
A3F
  8
DATA
  6
CONTINUOUS
 62
     7
 10
-48.514409459492853
 20
-128.34881230583389
 30
0.0
 11
-48.514409459492853
 21
-130.34881230583389
 31
0.0
  0
LINE
  5
A40
  8
DATA
  6
CONTINUOUS
 62
     7
 10
-47.60769323649275
 20
-128.34881230583389
 30
0.0
 11
-47.60769323649275
 21
-130.34881230583389
 31
0.0
  0
LINE
  5
A41
  8
DATA
  6
CONTINUOUS
 62
     7
 10
-29.862693236492792
 20
-128.34881230583389
 30
0.0
 11
-29.862693236492792
 21
-130.34881230583389
 31
0.0
  0
LINE
  5
A42
  8
DATA
  6
CONTINUOUS
 62
     7
 10
-28.955977013492681
 20
-128.34881230583389
 30
0.0
 11
-28.955977013492681
 21
-130.34881230583389
 31
0.0
  0
LINE
  5
A43
  8
DATA
  6
CONTINUOUS
 62
     7
 10
-23.52440945949289
 20
-128.34881230583389
 30
0.0
 11
-23.52440945949289
 21
-130.34881230583389
 31
0.0
  0
LINE
  5
A44
  8
DATA
  6
CONTINUOUS
 62
     7
 10
-52.467960324367169
 20
-130.34881230583389
 30
0.0
 11
-52.467960324367169
 21
-128.34881230583389
 31
0.0
  0
LINE
  5
A45
  8
DATA
  6
CONTINUOUS
 62
     7
 10
-49.752176547367327
 20
-130.34881230583389
 30
0.0
 11
-49.752176547367327
 21
-128.34881230583389
 31
0.0
  0
LINE
  5
A46
  8
DATA
  6
CONTINUOUS
 62
     7
 10
-27.47796032436727
 20
-130.34881230583389
 30
0.0
 11
-27.47796032436727
 21
-128.34881230583389
 31
0.0
  0
LINE
  5
A47
  8
DATA
  6
CONTINUOUS
 62
     7
 10
-24.762176547367371
 20
-130.34881230583389
 30
0.0
 11
-24.762176547367371
 21
-128.34881230583389
 31
0.0
  0
LINE
  5
A48
  8
DATA
  6
CONTINUOUS
 62
     7
 10
-270.69039625672173
 20
-128.3463881873717
 30
0.0
 11
-238.69040600335759
 21
-128.3463881873717
 31
0.0
  0
LINE
  5
A49
  8
DATA
  6
CONTINUOUS
 62
     7
 10
-144.02435983271019
 20
-128.3463881873717
 30
0.0
 11
-112.0243695793465
 21
-128.3463881873717
 31
0.0
  0
LINE
  5
A4A
  8
DATA
  6
CONTINUOUS
 62
     7
 10
-270.69039625672173
 20
-128.3463881873717
 30
0.0
 11
-270.69039625672173
 21
-130.3463881873717
 31
0.0
  0
LINE
  5
A4B
  8
DATA
  6
CONTINUOUS
 62
     7
 10
-238.69040600335759
 20
-128.3463881873717
 30
0.0
 11
-238.69040600335759
 21
-130.3463881873717
 31
0.0
  0
LINE
  5
A4C
  8
DATA
  6
CONTINUOUS
 62
     7
 10
-112.0243695793465
 20
-128.3463881873717
 30
0.0
 11
-112.0243695793465
 21
-130.3463881873717
 31
0.0
  0
LINE
  5
A4D
  8
DATA
  6
CONTINUOUS
 62
     7
 10
-144.02435983271019
 20
-128.3463881873717
 30
0.0
 11
-144.02435983271019
 21
-130.3463881873717
 31
0.0
  0
LINE
  5
A4E
  8
DATA
  6
CONTINUOUS
 62
     7
 10
-316.95761204815352
 20
-125.55
 30
0.0
 11
-316.95761204815352
 21
-128.55000000000001
 31
0.0
  0
LINE
  5
A4F
  8
DATA
  6
CONTINUOUS
 62
     7
 10
-312.15761204815362
 20
-125.55
 30
0.0
 11
-312.15761204815362
 21
-128.55000000000001
 31
0.0
  0
LINE
  5
A50
  8
DATA
  6
CONTINUOUS
 62
     7
 10
-319.45761204815352
 20
-125.55
 30
0.0
 11
-309.65761204815362
 21
-125.55
 31
0.0
  0
LINE
  5
A51
  8
DATA
  6
CONTINUOUS
 62
     7
 10
-319.45761204815352
 20
-125.34999999999989
 30
0.0
 11
-309.65761204815362
 21
-125.34999999999989
 31
0.0
  0
LINE
  5
A52
  8
DATA
  6
CONTINUOUS
 62
     7
 10
-319.45761204815352
 20
-125.55
 30
0.0
 11
-319.45761204815352
 21
-125.34999999999989
 31
0.0
  0
LINE
  5
A53
  8
DATA
  6
CONTINUOUS
 62
     7
 10
-309.65761204815362
 20
-125.55
 30
0.0
 11
-309.65761204815362
 21
-125.34999999999989
 31
0.0
  0
LINE
  5
A54
  8
DATA
  6
CONTINUOUS
 62
     7
 10
-316.95761204815352
 20
-128.55000000000001
 30
0.0
 11
-316.95761204815352
 21
-130.34745212323551
 31
0.0
  0
LINE
  5
A55
  8
DATA
  6
CONTINUOUS
 62
     7
 10
-312.15761204815362
 20
-128.55000000000001
 30
0.0
 11
-312.15761204815362
 21
-130.34745212323551
 31
0.0
  0
LINE
  5
A56
  8
DATA
  6
CONTINUOUS
 62
     7
 10
-224.65761204815351
 20
-125.55
 30
0.0
 11
-224.65761204815351
 21
-128.55000000000001
 31
0.0
  0
LINE
  5
A57
  8
DATA
  6
CONTINUOUS
 62
     7
 10
-219.85761204815361
 20
-125.55
 30
0.0
 11
-219.85761204815361
 21
-128.55000000000001
 31
0.0
  0
LINE
  5
A58
  8
DATA
  6
CONTINUOUS
 62
     7
 10
-227.15761204815351
 20
-125.55
 30
0.0
 11
-217.35761204815361
 21
-125.55
 31
0.0
  0
LINE
  5
A59
  8
DATA
  6
CONTINUOUS
 62
     7
 10
-227.15761204815351
 20
-125.34999999999989
 30
0.0
 11
-217.35761204815361
 21
-125.34999999999989
 31
0.0
  0
LINE
  5
A5A
  8
DATA
  6
CONTINUOUS
 62
     7
 10
-227.15761204815351
 20
-125.55
 30
0.0
 11
-227.15761204815351
 21
-125.34999999999989
 31
0.0
  0
LINE
  5
A5B
  8
DATA
  6
CONTINUOUS
 62
     7
 10
-217.35761204815361
 20
-125.55
 30
0.0
 11
-217.35761204815361
 21
-125.34999999999989
 31
0.0
  0
LINE
  5
A5C
  8
DATA
  6
CONTINUOUS
 62
     7
 10
-224.65761204815351
 20
-128.55000000000001
 30
0.0
 11
-224.65761204815351
 21
-130.34745212323551
 31
0.0
  0
LINE
  5
A5D
  8
DATA
  6
CONTINUOUS
 62
     7
 10
-219.85761204815361
 20
-128.55000000000001
 30
0.0
 11
-219.85761204815361
 21
-130.34745212323551
 31
0.0
  0
LINE
  5
A5E
  8
DATA
  6
CONTINUOUS
 62
     7
 10
-295.9519650579137
 20
-281.84872367667202
 30
0.0
 11
-301.38353261191349
 21
-281.84872367667202
 31
0.0
  0
LINE
  5
A5F
  8
DATA
  6
CONTINUOUS
 62
     7
 10
-276.39353261191337
 20
-281.84872367667202
 30
0.0
 11
-270.96196505791403
 21
-281.84872367667202
 31
0.0
  0
LINE
  5
A60
  8
DATA
  6
CONTINUOUS
 62
     7
 10
-295.04524883491348
 20
-281.84872367667202
 30
0.0
 11
-277.30024883491359
 21
-281.84872367667202
 31
0.0
  0
LINE
  5
A61
  8
DATA
  6
CONTINUOUS
 62
     7
 10
-270.96196505791403
 20
-281.84872367667202
 30
0.0
 11
-270.96196505791403
 21
-279.84872367667202
 31
0.0
  0
LINE
  5
A62
  8
DATA
  6
CONTINUOUS
 62
     7
 10
-276.39353261191337
 20
-281.84872367667202
 30
0.0
 11
-276.39353261191337
 21
-279.84872367667202
 31
0.0
  0
LINE
  5
A63
  8
DATA
  6
CONTINUOUS
 62
     7
 10
-277.30024883491359
 20
-281.84872367667202
 30
0.0
 11
-277.30024883491359
 21
-279.84872367667202
 31
0.0
  0
LINE
  5
A64
  8
DATA
  6
CONTINUOUS
 62
     7
 10
-295.04524883491348
 20
-281.84872367667202
 30
0.0
 11
-295.04524883491348
 21
-279.84872367667202
 31
0.0
  0
LINE
  5
A65
  8
DATA
  6
CONTINUOUS
 62
     7
 10
-295.9519650579137
 20
-281.84872367667202
 30
0.0
 11
-295.9519650579137
 21
-279.84872367667202
 31
0.0
  0
LINE
  5
A66
  8
DATA
  6
CONTINUOUS
 62
     7
 10
-301.38353261191349
 20
-281.84872367667202
 30
0.0
 11
-301.38353261191349
 21
-279.84872367667202
 31
0.0
  0
LINE
  5
A67
  8
DATA
  6
CONTINUOUS
 62
     7
 10
-272.43998174703921
 20
-279.84872367667202
 30
0.0
 11
-272.43998174703921
 21
-281.84872367667202
 31
0.0
  0
LINE
  5
A68
  8
DATA
  6
CONTINUOUS
 62
     7
 10
-275.155765524039
 20
-279.84872367667202
 30
0.0
 11
-275.155765524039
 21
-281.84872367667202
 31
0.0
  0
LINE
  5
A69
  8
DATA
  6
CONTINUOUS
 62
     7
 10
-297.42998174703911
 20
-279.84872367667202
 30
0.0
 11
-297.42998174703911
 21
-281.84872367667202
 31
0.0
  0
LINE
  5
A6A
  8
DATA
  6
CONTINUOUS
 62
     7
 10
-300.14576552403901
 20
-279.84872367667202
 30
0.0
 11
-300.14576552403901
 21
-281.84872367667202
 31
0.0
  0
LINE
  5
A6B
  8
DATA
  6
CONTINUOUS
 62
     7
 10
-213.22003623163309
 20
-282.84638818737119
 30
0.0
 11
-203.0200362316333
 21
-282.84638818737119
 31
0.0
  0
LINE
  5
A6C
  8
DATA
  6
CONTINUOUS
 62
     7
 10
-156.7178375356736
 20
-282.84638818737119
 30
0.0
 11
-146.51783753567381
 21
-282.84638818737119
 31
0.0
  0
LINE
  5
A6D
  8
DATA
  6
CONTINUOUS
 62
     7
 10
-213.22003623163309
 20
-282.84638818737119
 30
0.0
 11
-213.22003623163309
 21
-279.84638818737108
 31
0.0
  0
LINE
  5
A6E
  8
DATA
  6
CONTINUOUS
 62
     7
 10
-203.0200362316333
 20
-282.84638818737119
 30
0.0
 11
-203.0200362316333
 21
-279.84638818737108
 31
0.0
  0
LINE
  5
A6F
  8
DATA
  6
CONTINUOUS
 62
     7
 10
-156.7178375356736
 20
-282.84638818737119
 30
0.0
 11
-156.7178375356736
 21
-279.84638818737108
 31
0.0
  0
LINE
  5
A70
  8
DATA
  6
CONTINUOUS
 62
     7
 10
-146.51783753567381
 20
-282.84638818737119
 30
0.0
 11
-146.51783753567381
 21
-279.84638818737108
 31
0.0
  0
LINE
  5
A71
  8
DATA
  6
CONTINUOUS
 62
     7
 10
217.0569666364668
 20
-425.15247390235959
 30
0.0
 11
217.0569666364668
 21
-419.1524739023597
 31
0.0
  0
LINE
  5
A72
  8
DATA
  6
CONTINUOUS
 62
     7
 10
217.0569666364668
 20
-414.77773139743158
 30
0.0
 11
217.0569666364668
 21
-408.74251026649398
 31
0.0
  0
LINE
  5
A73
  8
DATA
  6
CONTINUOUS
 62
     7
 10
217.0569666364668
 20
-419.1524739023597
 30
0.0
 11
220.0569666364668
 21
-419.1524739023597
 31
0.0
  0
LINE
  5
A74
  8
DATA
  6
CONTINUOUS
 62
     7
 10
217.0569666364668
 20
-425.15247390235959
 30
0.0
 11
220.0569666364668
 21
-425.15247390235959
 31
0.0
  0
LINE
  5
A75
  8
DATA
  6
CONTINUOUS
 62
     7
 10
217.0569666364668
 20
-414.77773139743158
 30
0.0
 11
220.0569666364668
 21
-414.77773139743158
 31
0.0
  0
LINE
  5
A76
  8
DATA
  6
CONTINUOUS
 62
     7
 10
217.0569666364668
 20
-419.1524739023597
 30
0.0
 11
217.0569666364668
 21
-414.77773139743158
 31
0.0
  0
LINE
  5
A77
  8
DATA
  6
CONTINUOUS
 62
     7
 10
370.55696663646751
 20
-427.80744480386988
 30
0.0
 11
369.05696663646762
 21
-427.80744480386988
 31
0.0
  0
LINE
  5
A78
  8
DATA
  6
CONTINUOUS
 62
     7
 10
371.56273937319293
 20
-409.13133197776739
 30
0.0
 11
370.55643842911121
 21
-409.13133197776739
 31
0.0
  0
LINE
  5
A79
  8
DATA
  6
CONTINUOUS
 62
     7
 10
371.81273937319293
 20
-409.4313319777674
 30
0.0
 11
370.55643842911121
 21
-409.4313319777674
 31
0.0
  0
LINE
  5
A7A
  8
DATA
  6
CONTINUOUS
 62
     7
 10
373.06273937319293
 20
-402.93133197776729
 30
0.0
 11
373.06273937319293
 21
-408.4313319777674
 31
0.0
  0
LINE
  5
A7B
  8
DATA
  6
CONTINUOUS
 62
     7
 10
372.06273937319293
 20
-409.4313319777674
 30
0.0
 11
371.56273937319293
 21
-409.4313319777674
 31
0.0
  0
LINE
  5
A7C
  8
DATA
  6
CONTINUOUS
 62
     7
 10
371.76273937319291
 20
-409.13133197776739
 30
0.0
 11
371.56273937319293
 21
-409.13133197776739
 31
0.0
  0
LINE
  5
A7D
  8
DATA
  6
CONTINUOUS
 62
     7
 10
372.76273937319291
 20
-402.93133197776729
 30
0.0
 11
372.76273937319291
 21
-408.13133197776739
 31
0.0
  0
LINE
  5
A7E
  8
DATA
  6
CONTINUOUS
 62
     7
 10
372.76273937319291
 20
-402.93133197776729
 30
0.0
 11
373.06273937319293
 21
-402.93133197776729
 31
0.0
  0
ARC
  5
A7F
  8
DATA
  6
CONTINUOUS
 62
     7
 10
371.76273937319291
 20
-408.13133197776739
 30
0.0
 40
1.0
 50
270.0
 51
0.0
  0
ARC
  5
A80
  8
DATA
  6
CONTINUOUS
 62
     7
 10
372.06273937319293
 20
-408.4313319777674
 30
0.0
 40
1.0
 50
270.0
 51
0.0
  0
POLYLINE
  5
A81
  8
DATA
  6
CONTINUOUS
 62
     7
 66
     1
 10
0.0
 20
0.0
 30
0.0
  0
VERTEX
  5
1182
  8
DATA
  6
CONTINUOUS
 62
     7
 10
370.55696663646751
 20
-425.57171738658218
 30
0.0
  0
VERTEX
  5
1183
  8
DATA
  6
CONTINUOUS
 62
     7
 10
371.05343905089478
 20
-425.57171738658218
 30
0.0
  0
VERTEX
  5
1184
  8
DATA
  6
CONTINUOUS
 62
     7
 10
371.05343905089478
 20
-433.37171738658242
 30
0.0
  0
VERTEX
  5
1185
  8
DATA
  6
CONTINUOUS
 62
     7
 10
369.05343905089478
 20
-433.37171738658242
 30
0.0
  0
VERTEX
  5
1186
  8
DATA
  6
CONTINUOUS
 62
     7
 10
369.05343905089478
 20
-425.57171738658218
 30
0.0
  0
VERTEX
  5
1187
  8
DATA
  6
CONTINUOUS
 62
     7
 10
369.05696663646762
 20
-425.57171738658218
 30
0.0
  0
SEQEND
  5
1188
  8
DATA
  6
CONTINUOUS
 62
     7
  0
POLYLINE
  5
A89
  8
DATA
  6
CONTINUOUS
 62
     7
 66
     1
 10
0.0
 20
0.0
 30
0.0
  0
VERTEX
  5
1189
  8
DATA
  6
CONTINUOUS
 62
     7
 10
370.55696663646751
 20
-426.97171738658233
 30
0.0
  0
VERTEX
  5
118A
  8
DATA
  6
CONTINUOUS
 62
     7
 10
371.05343905089478
 20
-426.97171738658233
 30
0.0
  0
VERTEX
  5
118B
  8
DATA
  6
CONTINUOUS
 62
     7
 10
371.05343905089478
 20
-431.97171738658233
 30
0.0
  0
VERTEX
  5
118C
  8
DATA
  6
CONTINUOUS
 62
     7
 10
369.05343905089478
 20
-431.97171738658233
 30
0.0
  0
VERTEX
  5
118D
  8
DATA
  6
CONTINUOUS
 62
     7
 10
369.05343905089478
 20
-426.97171738658233
 30
0.0
  0
VERTEX
  5
118E
  8
DATA
  6
CONTINUOUS
 62
     7
 10
369.05696663646762
 20
-426.97171738658233
 30
0.0
  0
SEQEND
  5
118F
  8
DATA
  6
CONTINUOUS
 62
     7
  0
TEXT
  5
A91
  8
DATA
 62
     7
 10
224.29728357018371
 20
-593.50403334292662
 30
0.0
 40
12.21630859375
  1
DriveRack　220i
 41
0.8
 11
224.29728357018371
 21
-581.28772474917662
 31
0.0
 73
     3
  0
TEXT
  5
A92
  8
DATA
 62
     7
 10
222.28176009703941
 20
-572.9063163667837
 30
0.0
 40
9.5015733506944446
  1
音響出力系マルチプロセッサ
 41
0.8
 11
222.28176009703941
 21
-563.40474301608924
 31
0.0
 73
     3
  0
ENDSEC
  0
EOF
